Song name
# A B C D E F G H I J K L M N O P Q R S T U V W X Y Z

Stephen Lynch - Little Tiny Moustache tab

Help us improve GuitareTab! Take a short survey!
Song: Little Tiny Moustache
Artist: Stephen Lynch
Album: The Craig Machine
Tabbed by Kenny Maus k_maus13@yahoo.com

Standard tuning, capo 3rd fret
All tabs relative to capo

Chords (relative to capo):

    G    F#/D   Em   Bm   C   Am  D
e|--3-----x-----0----2----0---0---2---|
B|--3-----3-----0----3----1---1---3---|
G|--0-----2-----0----4----0---2---2---|
D|--0-----0-----2----4----2---2---0---|
A|--2-----0-----2----2----3---0---0---|
E|--3-----2-----0----x----x-----------|


Intro/1st Verse:

e|-------------------------------------------------------------------|
B|-------------------------------------------------------------------|
G|-----0-------0--------0-------0-------0-------0-------0-------0----|
D|---0---0---0---0----0---0---0---0---0---0---0---0---0---0---0---0--|
A|-------------------------------------------------------------------|
E|-3-------3-------2--------2-------0-------0-------2-------2--------|

Chorus- "I think you're a Nazi..."
e|-------------------------------------------------------------------|
B|-----0-------0--------0-------0-------0-------0-------0-------0----|
G|---0---0---0---0----0---0---0---0---0---0---0---0---0---0---0---0--|
D|-------------------------------------------------------------------|
A|-------------------------------------------------------------------|
E|-3-------3-------1--------1-------0-------0-------1-------1--------|

Verses:

G F#/D Em F#/D


Bridge- "you say that love is blind..."

Bm C Bm C Bm C Am D


Outro:
 "Lynch- berg-     stein"
e|-----------------3-----|
B|----0------0-----3-----|
G|--0--0---0---0---0-----|
D|1------1---------0-----|
A|-----------------2-----|
E|-----------------3-----|
Related for Little Tiny Moustache tab