Song name
# A B C D E F G H I J K L M N O P Q R S T U V W X Y Z

Stephen Lynch - Thats Why Mommy Left Us tab

Intro
-------0------------0--------------0-------------0------|-----|
-----3---3--------3---3----------3---3---------3---3----|-----|
---0-------0----0-------0-----0--------0-----0-------0--|-----|
---------------------------0----------------------------|-----|
--------------3---------------------------3-------------|-3-2-|
-0------------------------------------------------------|-----|

Verse
-------0-------------0-------------0------------0-------|
-----3---3---------3---3---------3---3--------3---3-----|
---2-------2-----2-------2-----2-------2----2-------2---|
---------------2-------------------------2--------------|
-0---------------------------3--------------------------|
--------------------------------------------------------|

-------3-------------3-------------0------------0-------|
-----3---3---------3---3---------3---3--------3---3-----|
---0-------0-----0-------0-----2-------2----2-------2---|
----------------------------0---------------------------|
--------------2---------------------------0-------------|
-3------------------------------------------------------|

|-------0----------------|------------------------------|
|-----3---3--------------|------------------------------|
|---2-------2------------|------------------------------|
|-0-----------0--let ring|------------------------------|
|------------------------|------------------------------|
|------------------------|------------------------------|

Chorus
-------3-------------0-------------0-------------0------|
-----3---3---------3---3---------3---3---------3---3----|
---0-------0-----2-------2-----0-------0-----0-------0--|
--------------0-----------------------------------------|
-------------------------------------------3------------|
-3---------------------------0--------------------------|

Interlude
-------0------------0--------------0------------0------|
-----3---3--------3---3----------3---3--------3---3----|
---2-------2----2-------2------2-------2----2-------2--|
-0---------------------------0-------------------------|
--------------0---------------------------0------------|
-------------------------------------------------------|

-------0------------0--------------0------------0------|
-----3---3--------3---3----------3---3--------3---3----|
---0-------0----0-------0------2-------2----2-------2--|
----------------------------0--------------------------|
-3----------------------------------------0------------|
--------------3----------------------------------------|

-------0------------0--------------0------------0------|
-----3---3--------3---3----------3---3--------3---3----|
---0-------0----0-------0------2-------2----2-------2--|
----------------------------0--------------------------|
-3----------------------------------------0------------|
--------------3----------------------------------------|

-------0------------0------------1-------------1-------|
-----3---3--------3---3--------1---1---------1---1-----|
---0-------0----0-------0----2-------2-----2-------2---|
---------------------------3---------------------------|
-3--------------------------------------3--------------|
--------------3----------------------------------------|

-------0------------0--------|
-----3---3--------3---3------|
---2-------2----2-------2----|
-0-------------------------0-| let ring
--------------0--------------|
-----------------------------|
Tap to rate this tab
 
# A B C D E F G H I J K L M N O P Q R S T U V W X Y Z