Song name
# A B C D E F G H I J K L M N O P Q R S T U V W X Y Z

Stephen Lynch - Special Ed tab

Intro:
e|---0-0-0000-0--0-0-0000-0----|
B|---2-2-0000-0--2-2-0000-0----|
G|---2-2-2222-2--2-2-2222-2----| x4
D|---2-2-0000-0--2-2-0000-0----|
A|---0-0-0000-0--0-0-0000-0----|
E|-----------------------------|

Verse 1:
e|---0-0-0-0-0-0-0-0-----------|
B|---2-2-2-0-0-0-0-0-----------|
G|---2-2-2-2-2-2-2-2-----------| x6
D|---2-2-2-0-0-0-0-0-----------|
A|---0-0-0-0-0-0-0-0-----------|
E|-----------------------------|

e|---2-2-2-2-2-2-2-2-0-0-0-0-0-0-0-0---|
B|---3-3-3-3-3-3-3-3-0-0-0-0-0-0-0-0---|
G|---4-4-4-4-4-4-4-4-1-1-1-1-1-1-1-1---|
D|---4-4-4-4-4-4-4-4-2-2-2-2-2-2-2-2---|
A|---2-2-2-2-2-2-2-2-2-2-2-2-2-2-2-2---|
E|-------------------0-0-0-0-0-0-0-0---|

Chorus:
e|---0-0-0-0-2-2-2-2-2-2-2-2-0-0-0-0---|
B|---2-2-2-2-3-3-3-3-3-3-3-3-0-0-0-0---|
G|---2-2-2-2-2-2-2-2-4-4-4-4-1-1-1-1---| x4
D|---2-2-2-2-0-0-0-0-4-4-4-4-2-2-2-2---|
A|---0-0-0-0---------2-2-2-2-2-2-2-2---|
E|---------------------------0-0-0-0---|

e|---0-0-0000-0--0-0-0000-0----|
B|---2-2-0000-0--2-2-0000-0----|
G|---2-2-2222-2--2-2-2222-2----| x2
D|---2-2-0000-0--2-2-0000-0----|
A|---0-0-0000-0--0-0-0000-0----|
E|-----------------------------|

Verse 2:
e|---0-0-0-0-0-0-0-0-----------|
B|---2-2-2-0-0-0-0-0-----------|
G|---2-2-2-2-2-2-2-2-----------| x6
D|---2-2-2-0-0-0-0-0-----------|
A|---0-0-0-0-0-0-0-0-----------|
E|-----------------------------|

e|---2-2-2-2-2-2-2-2-0-0-0-0-0-0-0-0---|
B|---3-3-3-3-3-3-3-3-0-0-0-0-0-0-0-0---|
G|---4-4-4-4-4-4-4-4-1-1-1-1-1-1-1-1---|
D|---4-4-4-4-4-4-4-4-2-2-2-2-2-2-2-2---|
A|---2-2-2-2-2-2-2-2-2-2-2-2-2-2-2-2---|
E|-------------------0-0-0-0-0-0-0-0---|

Chorus:
e|---0-0-0-0-2-2-2-2-2-2-2-2-0-0-0-0---|
B|---2-2-2-2-3-3-3-3-3-3-3-3-0-0-0-0---|
G|---2-2-2-2-2-2-2-2-4-4-4-4-1-1-1-1---| x4
D|---2-2-2-2-0-0-0-0-4-4-4-4-2-2-2-2---|
A|---0-0-0-0---------2-2-2-2-2-2-2-2---|
E|---------------------------0-0-0-0---|

e|---0-0-0000-0--0-0-0000-0----|
B|---2-2-0000-0--2-2-0000-0----|
G|---2-2-2222-2--2-2-2222-2----| x2
D|---2-2-0000-0--2-2-0000-0----|
A|---0-0-0000-0--0-0-0000-0----|
E|-----------------------------|

Verse 3:
e|---0-0-0-0-0-0-0-0-----------|
B|---2-2-2-0-0-0-0-0-----------|
G|---2-2-2-2-2-2-2-2-----------| x6
D|---2-2-2-0-0-0-0-0-----------|
A|---0-0-0-0-0-0-0-0-----------|
E|-----------------------------|

e|---2-2-2-2-2-2-2-2-0-0-0-0-0-0-0-0---|
B|---3-3-3-3-3-3-3-3-0-0-0-0-0-0-0-0---|
G|---4-4-4-4-4-4-4-4-1-1-1-1-1-1-1-1---|
D|---4-4-4-4-4-4-4-4-2-2-2-2-2-2-2-2---|
A|---2-2-2-2-2-2-2-2-2-2-2-2-2-2-2-2---|
E|-------------------0-0-0-0-0-0-0-0---|  (pause for toe names)

Chorus:
e|---0-0-0-0-2-2-2-2-2-2-2-2-0-0-0-0---|
B|---2-2-2-2-3-3-3-3-3-3-3-3-0-0-0-0---|
G|---2-2-2-2-2-2-2-2-4-4-4-4-1-1-1-1---| x4
D|---2-2-2-2-0-0-0-0-4-4-4-4-2-2-2-2---|
A|---0-0-0-0---------2-2-2-2-2-2-2-2---|
E|---------------------------0-0-0-0---|

e|---0-0-0000-0--0-0-0000-0----|
B|---2-2-0000-0--2-2-0000-0----|
G|---2-2-2222-2--2-2-2222-2----| x2
D|---2-2-0000-0--2-2-0000-0----|
A|---0-0-0000-0--0-0-0000-0----|
E|-----------------------------|

Verse 4:
e|---0-0-0-0-0-0-0-0-----------|
B|---2-2-2-0-0-0-0-0-----------|
G|---2-2-2-2-2-2-2-2-----------| x9
D|---2-2-2-0-0-0-0-0-----------|
A|---0-0-0-0-0-0-0-0-----------|
E|-----------------------------|

e|---2-2-2-2-2-2-2-2-0-0-0-0-0-0-0-0---|
B|---3-3-3-3-3-3-3-3-0-0-0-0-0-0-0-0---|
G|---4-4-4-4-4-4-4-4-1-1-1-1-1-1-1-1---|
D|---4-4-4-4-4-4-4-4-2-2-2-2-2-2-2-2---|
A|---2-2-2-2-2-2-2-2-2-2-2-2-2-2-2-2---|
E|-------------------0-0-0-0-0-0-0-0---|

Chorus:
e|---0-0-0-0-2-2-2-2-2-2-2-2-0-0-0-0---|
B|---2-2-2-2-3-3-3-3-3-3-3-3-0-0-0-0---|
G|---2-2-2-2-2-2-2-2-4-4-4-4-1-1-1-1---| x4
D|---2-2-2-2-0-0-0-0-4-4-4-4-2-2-2-2---|
A|---0-0-0-0---------2-2-2-2-2-2-2-2---|
E|---------------------------0-0-0-0---|

e|---0-0-0000-0--0-0-0000-0----|
B|---2-2-0000-0--2-2-0000-0----|
G|---2-2-2222-2--2-2-2222-2----| x2
D|---2-2-0000-0--2-2-0000-0----|
A|---0-0-0000-0--0-0-0000-0----|
E|-----------------------------|

Bridge:
e|---9--9--9-9-9-9--2-2-2-2-2-2-2-0-----|
B|---9--9--9-9-9-9--3-3-3-3-3-3-3-0-----|
G|---9--9--9-9-9-9--2-2-2-2-2-2-2-0-----| x4
D|---11-11-11111111-0-0-0-0-0-0-0-2-----|
A|---11-11-11111111---------------2-----|
E|---9--9--9-9-9-9----------------0-----|

e|---0-0-0000-0--0-0-0000-0----|
B|---2-2-0000-0--2-2-0000-0----|
G|---2-2-2222-2--2-2-2222-2----| x5
D|---2-2-0000-0--2-2-0000-0----|
A|---0-0-0000-0--0-0-0000-0----|
E|-----------------------------|

Verse 5:
e|---0-0-0-0-0-0-0-0-----------|
B|---2-2-2-0-0-0-0-0-----------|
G|---2-2-2-2-2-2-2-2-----------| x6
D|---2-2-2-0-0-0-0-0-----------|
A|---0-0-0-0-0-0-0-0-----------|
E|-----------------------------|

e|---2-2-2-2-2-2-2-2-0-0-0-0-0-0-0-0---|
B|---3-3-3-3-3-3-3-3-0-0-0-0-0-0-0-0---|
G|---4-4-4-4-4-4-4-4-1-1-1-1-1-1-1-1---|
D|---4-4-4-4-4-4-4-4-2-2-2-2-2-2-2-2---|
A|---2-2-2-2-2-2-2-2-2-2-2-2-2-2-2-2---|
E|-------------------0-0-0-0-0-0-0-0---|

Chorus:
e|---0-0-0-0-2-2-2-2-2-2-2-2-0-0-0-0---|
B|---2-2-2-2-3-3-3-3-3-3-3-3-0-0-0-0---|
G|---2-2-2-2-2-2-2-2-4-4-4-4-1-1-1-1---| x4
D|---2-2-2-2-0-0-0-0-4-4-4-4-2-2-2-2---|
A|---0-0-0-0---------2-2-2-2-2-2-2-2---|
E|---------------------------0-0-0-0---|

e|---0-0-0000-0--0-0-0000-0----|
B|---2-2-0000-0--2-2-0000-0----|
G|---2-2-2222-2--2-2-2222-2----| x4
D|---2-2-0000-0--2-2-0000-0----|
A|---0-0-0000-0--0-0-0000-0----|
E|-----------------------------|

e|---2-2-2-2-2-2-2-2-2-2-2-2-2-2-2-2-2-2-2-2-2-2-2-2---|
B|---3-3-3-3-3-3-3-3-3-3-3-3-3-3-3-3-3-3-3-3-3-3-3-3---|
G|---2-2-2-2-2-2-2-2-2-2-2-2-2-2-2-2-2-2-2-2-2-2-2-2---|
D|---0-0-0-0-0-0-0-0-0-0-0-0-0-0-0-0-0-0-0-0-0-0-0-0---|
A|-----------------------------------------------------|
E|-----------------------------------------------------| 

e|---0---|
B|---2---|
G|---2---|
D|---2---|
A|---0---|
E|-------|
Tap to rate this tab
# A B C D E F G H I J K L M N O P Q R S T U V W X Y Z