Song name
# A B C D E F G H I J K L M N O P Q R S T U V W X Y Z

Stephen Malkmus And The Jicks - We Cant Help You tab

Highlighted       Show chord diagrams
-------------------------------------------------------------------------------
		 Stephen Malkmus And The Jicks - We Can't Help You
-------------------------------------------------------------------------------
Tabbed by: Jeff


Tuning: standard


G                    Em
   There's no common goal

C                   G
   there's no moral action

G                    Em
   there's no modern age

C                    G
   from which to run away


G                      Em
   There's no grace in love

C               G
   with a known projection

G                 Em
   there's no sky above

C                 G
   for you to cry into


    F
    We can't help you 
(E--7--5---10-----7---7\--)

Fm   G Dm    F
find a place to


G                  Em
  Well, I wish for once

C                      G
  you would just start copin'

G                 Em
  every night and day

C                 G
  tell me what to say


G                Em
   You were over ripe

C                 G
   you were never open

G                  Em
   you were just a stripe

C             G
   on the gay crusade




    F
    We can't help you 
(E--7--5---10-----7---7\--)

Fm   G Dm    F   G
find a place to  lay

(female vocal, tabbed for guitar) "la's"
e|--7--5-3-5---3-------------------------------------------------------------|
B|------------------3--3--3p0------------------------------------------------|
G|-----------------------------2-2--0----------------------------------------|
D|---------------------------------------------------------------------------|
A|---------------------------------------------------------------------------|
E|---------------------------------------------------------------------------|



G                   Em
   She knows one is one

C                 G
   she can let it through now

G                  Em
   she can kill me cool

C                 G
   welcome to the ruse



G                      Em
   Well, I've seen the storm

C                 G
   it is off your shoulder


G               Em
   party in the cage

C              G
   blow us all away



  F
    We can't help you 
(E--7--5---10-----7---7\--)

Fm   G Dm    F   G
find a place to  lay    (x2)

(female vocal, tabbed for guitar) "la's"
e|--7--5-3-5---3-------------------------------------------------------------|
B|------------------3--3--3p0------------------------------------------------|
G|-----------------------------2-2--0----------------------------------------|
D|---------------------------------------------------------------------------|
A|---------------------------------------------------------------------------|
E|---------------------------------------------------------------------------|




| /  slide up
| \  slide down
| h  hammer-on
| p  pull-off
| ~  vibrato
| +  harmonic
| x  Mute note
===============================================================================
Tap to rate this tab
 
# A B C D E F G H I J K L M N O P Q R S T U V W X Y Z