Song name
# A B C D E F G H I J K L M N O P Q R S T U V W X Y Z

Stephen Malkmus And The Jicks - We Cant Help You tab

STEPHEN MALKMUS
"WE CAN'T HELP YOU" OFF REAL EMOTIONAL TRASH

Tuning:
CGDGBE
FROM STANDARD TUNING, TUNE YOUR LOW E STRING DOWN 2 WHOLE STEPS (4 FRETS)
AND THEN TUNE YOUR A DOWN DOWN ONE WHOLE STEP (2 FRETS)

CHORDS:

G   775XXX
E   442XXX
C   055XXX

IT SOUNDS BETTER IF YOU CAN KIND OF PLUCK THIS AND MUTE IT, IF THAT MAKES ANY SENSE.

E--------------------------|
B--------------------------|
G--------------------------|
D----5-5-X-5-2-2-X-5-5H7P5-|
G----7-7-X-7-4-4-X-5-5 7---|
C----7-7-X-7-4-4-X-0-0-0-0-|

LYRICS:
THERES NO COMMON GOAL
THERES NO MORAL ACTION
THERES THE MODERN AGE
FROM WHICH TO RUN AWAY

THERES NO GRACE IN LOVE
WITH A KNOWN PROJECTION
THERES THE SKY ABOVE
FOR YOU TO CRY INTO

E------------------------------------|
B-12----10----15----12-------12 / 0--|
G--0------0------0------0-----0------|
D------------------------------------|
G-10----10----10----10-------10 / 0--|
C------------------------------------|

   WE  CAN'T HELP YOU

E-1----1---3------3---5------5----8-----8---8-|
B---3--3-------0- 0------3---3-------6--6---6-|
G------2----------0------4---4-------7--7---7-|
D-0----0---2----- 2---5------5----7-----7---7-|
G---------------------------------------------|
C---------------------------------------------|

  FIND     A          PLACE       TO


WELL I WISH FOR ONCE
YOU WOULD JUST STOP COPIN'
EVERY NIGHT AND DAY
TELL ME WHAT TO SAY

YOU WERE OVER RIPE
YOU WERE NEVER OPEN
YOU WERE JUST A STRIPE
ON A GAY CRUSADE


WE CANT HELP YOU FIND A PLACE TO

SHE KNOWS ONE IS ONE
SHE CAN LET IT THROUGH NOW
SHE CAN KILL ME COOL
WELCOME TO THE RUSE

WELL, I'VE SEEN THE STORM
IT IS OFF YOUR SHOULDER
PARTY IN THE CAGE
BLOW US ALL AWAY

WE CANT HELP YOU
FIND A PLACE TO
WE CANT HELP YOU
FIND A PLACE TO LAY
Tap to rate this tab
# A B C D E F G H I J K L M N O P Q R S T U V W X Y Z