Song name
# A B C D E F G H I J K L M N O P Q R S T U V W X Y Z

Stephen Marley - Chase Dem tab

intro:

-------------------------------------------------------9--------------7~~--|
7~~-----10---7~~-------------------------------------7----7-10---10-7------|
----9-7----9-----9-7--------7-9b11-7-----7-------7-9----------9------------|
-----------------------9--7-9----------9-7---9-----------------------------|
---------------------------------------------------------------------------|
---------------------------------------------------------------------------|

chorus & verse:
the chords are played on the offbeat by one guitar, the other guitar does this:

   B        Em         B                         A (a wah wah is used here)
|xxxxx------xxxxxx----xxxxxx---------------------5-------------------------|
|xxxxx------xxxxxx----xxxxxx---------------------5-------------------------|
|xxxxx------xxxxxx----xxxxxx---------------------6-------------------------|
|xxxxx------xxxxxx----xxxxxx-----7---7-999-7-9---7-------------------------|
|xxxxx------xxxxxx----xxxxxx--/9---9-------------7-------------------------|
|xxxxx------xxxxxx----xxxxxx---------------------5-------------------------|
Tap to rate this tab
# A B C D E F G H I J K L M N O P Q R S T U V W X Y Z