Song name
# A B C D E F G H I J K L M N O P Q R S T U V W X Y Z

Stephen Speaks - Complete tab

COMPLETE by Stephen Speaks


INTRO:

e|--------------------6-------------------------------|
B|---------------4----4----------------------4----4---|
G|-----3-----3---5-----------------3-----3---5----5---| 2x
D|---5-----5---------------------5-----5--------------|
A|-6-----5---------------------6-----5----------------|
E|-------------4---------------------------4----------|


VERSE:

 If I lay my voice down

  at your feet
e|--------------------6--|
B|---------------4----4--|
G|-----3-----3---5-------|
D|---5-----5-------------|
A|-6-----5---------------|
E|-------------4---------|

 Would you still hear my song

   echoing
e|-----------------------|
B|---------------4----4--|
G|-----3-----3---5----5--|
D|---5-----5-------------|
A|-6-----5---------------|
E|-------------4---------|

 And I might end this game of

   hide and seek
e|--------------------6--|
B|---------------4----4--|
G|-----3-----3---5-------|
D|---5-----5-------------|
A|-6-----5---------------|
E|-------------4---------|


CHORUS:

'Coz in you, I am complete
'Coz in you, I am complete

e|---------3-----------6----|
B|-----4-----4-----4-----4--|
G|-----5-----------5--------| 2x
D|--------------------------|
A|--------------------------|
E|-5-5---5-----4-4---4------|


VERSE:

 All the voices I hear

   in my sleep
e|--------------------6--|
B|---------------4----4--|
G|-----3-----3---5-------|
D|---5-----5-------------|
A|-6-----5---------------|
E|-------------4---------|

 All the sense of my past

   echoing
e|-----------------------|
B|---------------4----4--|
G|-----3-----3---5----5--|
D|---5-----5-------------|
A|-6-----5---------------|
E|-------------4---------|

 To stay off my knees and

   on my feet
e|--------------------6--|
B|---------------4----4--|
G|-----3-----3---5-------|
D|---5-----5-------------|
A|-6-----5---------------|
E|-------------4---------|


CHORUS:

Oh, but they, they can't compete
'Coz in you, I am complete

e|---------3-----------6----|
B|-----4-----4-----4-----4--|
G|-----5-----------5--------| 2x
D|--------------------------|
A|--------------------------|
E|-5-5---5-----4-4---4------|

oohh...

I am complete..........

e|--------------------6--------------------------------|
B|---------------4----4----------------------4----4----|
G|-----3-----3---5-----------------3-----3---5----5----| paulit-ulit lang..
D|---5-----5---------------------5-----5---------------|
A|-6-----5---------------------6-----5-----------------|
E|-------------4---------------------------4-----------|


 If I lay my voice down

  at your feet
e|--------------------6--|
B|---------------4----4--|
G|-----3-----3---5-------|
D|---5-----5-------------|
A|-6-----5---------------|
E|-------------4---------|

NITRAM
06-07-08
09:21 PM
Tap to rate this tab
 
# A B C D E F G H I J K L M N O P Q R S T U V W X Y Z