Song name
# A B C D E F G H I J K L M N O P Q R S T U V W X Y Z

Stephen Speaks - Out Of My League tab

Hey guys! This one's a nice intro for the song Out of my League
It's actually played with a capo on the 5th or 6th fret (Just check which sounds better. 


e-------3------2-0---------------!
b------------------3-------------!
g-------0------------------------!
D----2---------------------------!
A--3-----------------------------!
E--------------------------------!

e--------------------------------!
b--------------0-----------------!
g-------2--------2-0-------------!
D----0---------------------------!
A--------------------------------!
E--3-----------------------------!

e-------3------2-0---------------!
b------------------3-------------!
g-------0------------------------!
D----2---------------------------!
A--3-----------------------------!
E--------------------------------!

e--0--0-------2h3p2-0------------!
b--------------------------------!
g--------------------------------!
D--------------------------------!
A--2-----------------------------!
E--------------------------------!

e-------3------2-0---------------!
b------------------3-------------!
g-------0------------------------!
D----2---------------------------!
A--3-----------------------------!
E--------------------------------!

e--------------------------------!
b--------------0-----------------!
g-------2--------2-0-------------!
D----0---------------------------!
A--------------------------------!
E--3-----------------------------!

e--------------------------------!
b------0-------------------------!
g--------2-0---------0-----------!
D----0-------------0-------------!
A--3-------------2---------------!
E--------------3-----------------!

Please email me for comments or suggestions: johannez_delacruz@yahoo.com
Tap to rate this tab
# A B C D E F G H I J K L M N O P Q R S T U V W X Y Z