Guitaretab - guitar tabs
Song name
# A B C D E F G H I J K L M N O P Q R S T U V W X Y Z

Stephen Speaks - Song For A Dancer tab

Someone else tabbed this on 911 tab but I like my version of doing
this better. The other tab didn't show timing for the solo and needs
a capo. I don't even have a capo so I transated it the easiest way
and I'm going to try and show the timing for the solo.

Intro/Verse
---------------------------|
---------------------------|
-7--7-9------12--12-11--12-|
---------------------------| x14
---------------------------|
---7--8--------12---10--12-|

or this one, whichever you prefer.
----------------------------|
----------------------------|
-7----9------12------11--12-|
----------------------------| x14
----------------------------|
--7-7-8--------12-12-10--12-|
[ Tab from: http://www.guitaretab.com/s/stephen-speaks/182520.html ]
Chorus
-7---7---7---7---5---5---5---5------------------------------------|
---------------------------------8---8---8---8--------------------|
-------------------------------------------------9---9---9---9----|
---5---5---5---5---5---5---5---5---5---5---5---5---5---5---5---5--| x2
------------------------------------------------------------------|
------------------------------------------------------------------|

Solo
---------------------------|
---------------------------|
-7--7-9------12--12-11--12-|
---------------------------|
---------------------------|
--7---8--------12---10--12-|

--------------------------|
--------------------------|
--------------------------|
-9--9-5-------------------|
--------------------------|
--------------------------|

--------------------------|
--------------------------|
--5-----------------------|
-9-9--7--5----5-----------|
------------9-------------|
--------------------------|

--------------------------|
--------------------------|
-5-9-9-5------------------|
--------------------------|
--------------------------|
--------------------------|

--------------------------|
--------------------------|
---5----------------------|
-9---9-555/7-5------------|
---------------9----------|
--------------------------|
Related for Song For A Dancer tab
Advertisement will be closed in 10 seconds