Song name
# A B C D E F G H I J K L M N O P Q R S T U V W X Y Z

Stephen Speaks - On My Way tab

Intro and Verses
e--------------------------------------------------|
B--------------------------------------------------|
G--2---4---7---6---2---4---11--11--9---7---6-------|
D--0---0---0---0---0---0----0---0--0---0---0-------|
A--x---x---x---x---x---x----x---x--x---x---x-------|
E--2---3---7---5---2---3---10--10--9---7---5-------|

e--------------------------------|
B--------------------------------|
G--2---4---7---6---2---4---6---7-|
D--0---0---0---0---0---0---0---0-|
A--x---x---x---x---x---x---x---x-|
E--2---3---7---5---2---3---5---7-|

Chorus
e--------------------------------------------------|
B--------------------------------------------------|
G-11---9---6---7---11---9---6---7---6---4----------|
D--0---0---0---0----0---0---0---0---0---0----------|
A--x---x---x---x----x---x---x---x---x---x----------|
E-10---9---5---7---10---9---5---7---5---3----------|

e-----------------------------|
B-----------------------------|
G-11---9---6---7---2---4---6--|
D--0---0---0---0---0---0---0--|
A--x---x---x---x---x---x---x--|
E-10---9---5---7---2---3---5--|

Ending
e---------------------------------------|
B---------------------------------------|
G--2---4---7---6---2---4---6--7--9--11--|
D--0---0---0---0---0---0---0--0--0---0--|
A--x---x---x---x---x---x---x--x--x---x--|
E--2---3---7---5---2---3---5--7--9--10--|
Tap to rate this tab
 
# A B C D E F G H I J K L M N O P Q R S T U V W X Y Z