Song name
# A B C D E F G H I J K L M N O P Q R S T U V W X Y Z

Stephen Speaks - Unraveled tab

----------------------------------------------------------------------------
			     SONG NAME - Band Name
----------------------------------------------------------------------------
Tabbed by:jvadala
Email:jvadala425@gmail.com

Tuning: Standard EADGe  **Capo 3**      ((Figure our the strumming pattern yourself. its easy.))

INTRO AND VERSE 1:

e|------------------------------------------12------------------------------|
B|------------------------------------------12------------------------------|
G|--0h2--2/4----2/4--4------0h2--2/4--4/6---12------------------------------|
D|--0h2--2/4----2/4--4------0h2--2/4--4/6---12------------------------------|
A|--0-0--0-0----0-0--0------0----0-0--0-0-----------------------------------|
E|--0-0--0-0----0-0--0------0----0-0--0-0-----------------------------------|

CHORUS: 

e|---0--0--0---0--0--0---0--0--0---0--0---------------------------------0---|
B|---0--0--0---0--0--0---0--0--0---0--0---------------------------------0---|
G|---2--4--6---2--4--1---2--4--6---2--4---------------------------------2---|
D|---2--4--6---2--4--2---2--4--4---2--2------2---2---2---2-----2------2-2---|
A|---0--2--4---0--2--2---0--2--4---0--2-----2---2---2---2---0h2--0h2-4--0---|
E|---0--x--x---0--x--0---0--x--x---0--x----0---2---4---4----------------0---|

e|--------------------------------------------------------------------------|
B|--4h5--5-5p4--------------------------------------------------------------|
G|--4----x-x----------------------------------------------------------------|
D|--4----2-2--------------------------------BACK TO INTRO-------------------|
A|-------0-0----------------------------------------------------------------|
E|-------x-x----------------------------------------------------------------|


| /  slide up
| \  slide down
| h  hammer-on
| p  pull-off
| ~  vibrato
| +  harmonic
| x  Mute note



LYRICS:

Unraveled

I knew it'd be like this someday.
It turns out someday's not so far away.
Now I'm falling down, 
I know you'd catch me but you're not around

Chorus:
So when it's all unraveled at the end of my road
Would you, burn it on the side?
And it won't be easy but I'll do my best
When it's time to say goodbye

And all the things will live
Living me with only memories
You are too good to be true, but then...
I could have sworn that it was meant to be

Repeat Chorus.

And I'm all unraveled at the end of my road but I'm...
Hangin' on for life..
And it isn't easy but I'm standing here
Til you... make me say to you
Make me say to...
Make me say...
Goodbye..
===============================================================================
Tap to rate this tab
# A B C D E F G H I J K L M N O P Q R S T U V W X Y Z