Song name
# A B C D E F G H I J K L M N O P Q R S T U V W X Y Z

Stephen Speaks - Out Of My League tab

TABBED BY: KURT RYAN DIZON VELASCO
Out of my league
Capo - 5th fret
Intro:

C9 D G/D
|------3--|-0h2-0----|-------------------------|
|---------|-------3--|----------0--------------|
|----0--0-|----------|------2-----2-0----------|
|---------|-0--------|----0---0----------------|
|--3------|----------|-------------------------|
|---------|----------|-3-----------------------|

C9 D E/D
|------3---|-0h2-0---|---0---2-2h3-2-0---------|
|----------|-------3-|-------------------------|
|----0--0--|---------|-----0--0----------------|
|----------|-0-------|---2---------------------|
|--3-------|---------|-------------------------|
|----------|---------|-------------------------|


C9 D G/D C9
|------3--|-0h2-0----|-----------------|----------------------|
|---------|-------3--|----------0------|-------0--------------|
|----0--0-|----------|------2-----2-0--|---------2--0-0-------|
|---------|-0--------|----0---0--------|-----0----------------|
|--3------|----------|-----------------|--2--------------3/5--|
|---------|----------|-3---------------|---------------------3|


Verse 1:

C9 D G/D
|------3--|-0h2-0----|-------------------------|
|---------|-------3--|----------0--------------|
|----0--0-|----------|------2-----2-0----------|
|---------|-0--------|----0---0----------------|
|--3------|----------|-------------------------|
|---------|----------|-3-----------------------|

C9 D E/D
|------3---|-0h2-0---|---0---2-2h3-2-0---------|
|----------|-------3-|-------------------------|
|----0--0--|---------|-----0--0----------------|
|----------|-0-------|---2---------------------|
|--3-------|---------|-------------------------|
|----------|---------|-------------------------|



Am Bm7 C9 D
|--------------|-------------|-------------|-----------|
|-------1------|------3------|------3------|-----3--3--|
|-----------0--|----------0--|----------0--|----0-0----|
|-----2---2----|----0---0----|----0---0----|--0--------|
|--0-----------|--2----------|--3----------|-----------|
|--------------|-------------|-------------|-----------|

C9 D E/D
|-------------|------------|--0---2--2h3--2-0-|
|------3------|-----3--3---|------------------|
|----------0--|----0-0-----|----0---0---------|
|----0---0----|--0---------|--2---------------|
|--3----------|------------|------------------|
|-------------|------------|------------------|



C9 D G/D
|------3--|-0h2-0----|-------------------------|
|---------|-------3--|----------0--------------|
|----0--0-|----------|------2-----2-0----------|
|---------|-0--------|----0---0----------------|
|--3------|----------|-------------------------|
|---------|----------|-3-----------------------|

C9 D E/D
|------3---|-0h2-0---|---0---2-2h3-2-0---------|
|----------|-------3-|-------------------------|
|----0--0--|---------|-----0--0----------------|
|----------|-0-------|---2---------------------|
|--3-------|---------|-------------------------|
|----------|---------|-------------------------|



Am Bm7 C9 D
|--------------|-------------|-------------|-----------|
|-------1------|------3------|------3------|-----3--3--|
|-----------0--|----------0--|----------0--|----0-0----|
|-----2---2----|----0---0----|----0---0----|--0--------|
|--0-----------|--2----------|--3----------|-----------|
|--------------|-------------|-------------|-----------|

C9 D E/D
|-------------|------------|--0---2--2h3-2--0-|
|------3------|-----3--3---|------------------|
|----------0--|----0-0-----|----0---0---------|
|----0---0----|--0---------|--2---------------|
|--3----------|------------|------------------|
|-------------|------------|------------------|




Chorus:

Strumming part

G C G+
|---X--|--0--|--X-X-X--|
|---X--|--1--|--X-1-X--|
|---0--|--0--|--0-0-0--| 2X
|---0--|--2--|--0-0-0--|
|---2--|--3--|--2-2-2--|
|---3--|--X--|--3-3-3--|

Am Bm7 C9 D
|--------------|-------------|-------------|-----------|
|-------1------|------3------|------3------|-----3--3--|
|-----------0--|----------0--|----------0--|----0-0----|
|-----2---2----|----0---0----|----0---0----|--0--------|
|--0-----------|--2----------|--3----------|-----------|
|--------------|-------------|-------------|-----------|

C9 D E/D
|-------------|------------|--0---2--2h3--2-0-|
|------3------|-----3--3---|------------------|
|----------0--|----0-0-----|----0---0---------|
|----0---0----|--0---------|--2---------------|
|--3----------|------------|------------------|
|-------------|------------|------------------|


|---------------------------------------------------------------------|

C9 D G/D C9
|------3--|-0h2-0----|-----------------|----------------------|
|---------|-------3--|----------0------|-------0--------------|
|----0--0-|----------|------2-----2-0--|---------2--0-0-------|
|---------|-0--------|----0---0--------|-----0----------------|
|--3------|----------|-----------------|--2--------------3/5--|
|---------|----------|-3---------------|---------------------3|

|---------------------------------------------------------------------|

Verse 2:


C9 D G/D
|------3--|-0h2-0----|-------------------------|
|---------|-------3--|----------0--------------|
|----0--0-|----------|------2-----2-0----------|
|---------|-0--------|----0---0----------------|
|--3------|----------|-------------------------|
|---------|----------|-3-----------------------|

C9 D E/D
|------3---|-0h2-0---|---0---2-2h3-2-0---------|
|----------|-------3-|-------------------------|
|----0--0--|---------|-----0--0----------------|
|----------|-0-------|---2---------------------|
|--3-------|---------|-------------------------|
|----------|---------|-------------------------|



Am Bm7 C9 D
|--------------|-------------|-------------|-----------|
|-------1------|------3------|------3------|-----3--3--|
|-----------0--|----------0--|----------0--|----0-0----|
|-----2---2----|----0---0----|----0---0----|--0--------|
|--0-----------|--2----------|--3----------|-----------|
|--------------|-------------|-------------|-----------|

C9 D E/D
|-------------|------------|--0---2--2h3--2-0-|
|------3------|-----3--3---|------------------|
|----------0--|----0-0-----|----0---0---------|
|----0---0----|--0---------|--2---------------|
|--3----------|------------|------------------|
|-------------|------------|------------------|


2nd chorus:

Strumming part

G C G+
|---X--|--0--|--X-X-X--|
|---X--|--1--|--X-1-X--|
|---0--|--0--|--0-0-0--| 2X
|---0--|--2--|--0-0-0--|
|---2--|--3--|--2-2-2--|
|---3--|--X--|--3-3-3--|

Am Bm7 C9 D
|--------------|-------------|-------------|-----------|
|-------1------|------3------|------3------|-----3--3--|
|-----------0--|----------0--|----------0--|----0-0----|
|-----2---2----|----0---0----|----0---0----|--0--------|
|--0-----------|--2----------|--3----------|-----------|
|--------------|-------------|-------------|-----------|

C9 D E/D
|-------------|------------|--0---2--2h3--2-0-|
|------3------|-----3--3---|------------------|
|----------0--|----0-0-----|----0---0---------|
|----0---0----|--0---------|--2---------------|
|--3----------|------------|------------------|
|-------------|------------|------------------|


Am Bm7 C9 D
|--------------|-------------|-------------|-----------|
|-------1------|------3------|------3------|-----3--3--|
|-----------0--|----------0--|----------0--|----0-0----|
|-----2---2----|----0---0----|----0---0----|--0--------|
|--0-----------|--2----------|--3----------|-----------|
|--------------|-------------|-------------|-----------|

C9 D E/D
|-------------|------------|--0---2--2h3--2-0-|
|------3------|-----3--3---|------------------|
|----------0--|----0-0-----|----0---0---------|
|----0---0----|--0---------|--2---------------|
|--3----------|------------|------------------|
|-------------|------------|------------------|

Repeat Intro:

Repeat Verse 1:

different chord Chorus:

G F#
|-----------|-----------|----------|----------|
|-----3-3---|-----3-3---|-----3-3--|-----3-3--|
|----0-0----|----0-0----|----0-0---|----0-0---|
|-----------|-----------|----------|----------|
|-----------|-----------|----------|----------|
|--3--------|--3--------|--2-------|--2-------|

E/G C9
|-----------|-----------|----------|----------|
|-----3-3---|-----3-3---|-----3-3--|-----3-3--|
|----0-0----|----0-0----|----0-0---|----0-0---|
|-----------|-----------|----------|----------|
|-----------|-----------|--2-------|--2-------|
|--0--------|--0--------|----------|----------|

Am Bm7 C9 D
|--------------|-------------|-------------|-----------|
|-------1------|------3------|------3------|-----3--3--|
|-----------0--|----------0--|----------0--|----0-0----|
|-----2---2----|----0---0----|----0---0----|--0--------|
|--0-----------|--2----------|--3----------|-----------|
|--------------|-------------|-------------|-----------|

C9 D E/D
|-------------|------------|--0---2--2h3--2-0-|
|------3------|-----3--3---|------------------|
|----------0--|----0-0-----|----0---0---------|
|----0---0----|--0---------|--2---------------|
|--3----------|------------|------------------|
|-------------|------------|------------------|

Am Bm7 C9 D
|--------------|-------------|-------------|-----------|
|-------1------|------3------|------3------|-----3--3--|
|-----------0--|----------0--|----------0--|----0-0----|
|-----2---2----|----0---0----|----0---0----|--0--------|
|--0-----------|--2----------|--3----------|-----------|
|--------------|-------------|-------------|-----------|

C9 D E/D
|-------------|------------|--0---2--2h3--2-0-|
|------3------|-----3--3---|------------------|
|----------0--|----0-0-----|----0---0---------|
|----0---0----|--0---------|--2---------------|
|--3----------|------------|------------------|
|-------------|------------|------------------|



Repeat Intro:


Outro:

|------------0---|-------------------------|
|---------------3|--------------0----------|
|---------0------|--------2------2--0------|
|-------0--------|------0---0--------------|
|----3-----------|-------------------------|
|----------------|--3----------------------|
Tap to rate this tab
 
# A B C D E F G H I J K L M N O P Q R S T U V W X Y Z