Song name
# A B C D E F G H I J K L M N O P Q R S T U V W X Y Z

Stephen Speaks - Out Of My League chords

Highlighted       Show chord diagrams
INTRO:  C9 - D - G/D
        C9 - D - E/D
        C9 - D - G/D - C9

Verse I

     C9            D            G/D
It's her hair and her eyes today

            C9    D        E/D
That just simply take me away

       Am            Bm7          C9          D  
And the feeling that I'm falling further in love

           C9      D           E/D
Makes me shiver but in a good way

       C9              D       G/D
All the times I have sat and stared

        C9          D                E/D
As she thoughtfully thumbs through her hair

       Am           Bm7            C9       
And she purses her lips, bats her eyes

         D          C9           D          
And she plays with me sittin there slacked jaw

     E/D
And nothing to say


CHORUS I:

       G          C           G
Coz I love her with all that I am

         G          C           G
And my voice shakes along with my hands

            Am                               Bm7
Yes she's all that I see and she's all that I need

    C9               D              G                        
And I'm out of my league once again 


    C9        D                G/D                C9
|------3--|-0-2-0----|-----------------|----------------------|
|---------|-------3--|----------0------|-------0--------------|
|----0--0-|----------|------2-----2-0--|---------2--0-0-------|
|---------|-0--------|----0---0--------|-----0----------------|
|--3------|----------|-----------------|--2--------------2/4--|
|---------|----------|-3---------------|---------------------2|


Verse II:

      C9        D      G/D    
It's a masterful melody

         C9         D         E/D      
When she calls out my name to me

        Am           Bm7 
As the world spins around her

       C9             D
She laughs, close her eyes

       C9           D                E/D         G
And I feel like I'm fallin but it's no surprise
 

CHORUS II:

       G              C           G
Coz I love her with all that I am

       G               C           G
And my voice shakes along with my hands

          Am           Bm7            C9             D             
Coz it's frightening to be swimming in this strange sea

      C9           D                E/D                       
But I'd rather be here than on land

     Am           Bm7            C9             D
Yes she's all that I see and she's all that I need

        C9           D             E/D                      
And I'm out of my league once again


[REPEAT Verse | ]

Chorus
Change chords.

            G                      F#
|-----------|-----------|----------|----------|
|-----3-3---|-----3-3---|-----3-3--|-----3-3--|
|----0-0----|----0-0----|----0-0---|----0-0---|
|-----------|-----------|----------|----------|
|-----------|-----------|----------|----------|
|--3--------|--3--------|--2-------|--2-------|

            E/G                    C9
|-----------|-----------|----------|----------|
|-----3-3---|-----3-3---|-----3-3--|-----3-3--|
|----0-0----|----0-0----|----0-0---|----0-0---|
|-----------|-----------|----------|----------|
|-----------|-----------|--2-------|--2-------|
|--0--------|--0--------|----------|----------|

       Am           Bm7            C9             D
|--------------|-------------|-------------|-----------|   
|-------1------|------3------|------3------|-----3--3--|
|-----------0--|----------0--|----------0--|----0-0----|
|-----2---2----|----0---0----|----0---0----|--0--------|
|--0-----------|--2----------|--3----------|-----------|
|--------------|-------------|-------------|-----------|
                                                           
      C9           D                E/D
|-------------|------------|--0---2---3--2--0-|
|------3------|-----3--3---|------------------|
|----------0--|----0-0-----|----0---0---------|
|----0---0----|--0---------|--2---------------|
|--3----------|------------|------------------|
|-------------|------------|------------------|

       Am           Bm7            C9             D
|--------------|-------------|-------------|-----------|
|-------1------|------3------|------3------|-----3--3--|
|-----------0--|----------0--|----------0--|----0-0----|
|-----2---2----|----0---0----|----0---0----|--0--------|
|--0-----------|--2----------|--3----------|-----------|
|--------------|-------------|-------------|-----------|

      C9           D                E/D
|-------------|------------|--0---2---3--2--0-|
|------3------|-----3--3---|------------------|
|----------0--|----0-0-----|----0---0---------|
|----0---0----|--0---------|--2---------------|
|--3----------|------------|------------------|
|-------------|------------|------------------|

Tap to rate this tab
# A B C D E F G H I J K L M N O P Q R S T U V W X Y Z