Guitaretab - guitar tabs
Song name
# A B C D E F G H I J K L M N O P Q R S T U V W X Y Z

Stephen Speaks - All These Things tab

Listen to the song for the Rhythm on the Plucking

Intro
----------|
-3----4-3-|
---3------|
----------|
-1--1-2-1-|
----------|

Verse x2
---------------------------3-1-------------|
-3----4-3--4----4-4---4--------4--3----4-3-|
---3---------3-------3-3-3----------3------|
---------------------------1-0-------------|
-1--1-2-1--2---2----2---2------2--1--1-2-1-|
-------------------------------------------|
[ Tab from: http://www.guitaretab.com/s/stephen-speaks/50120.html ]
"You know it could be all these things...mostly its her smile"
------------------1---3----1-------------------------------------|
--------------4-----------------4-----------------------3----4-3-|
----------------------------------------------------------3------|
------------------0---1----0-------------------------------------|
--------------2-----------------2-----------------------1--1-2-1-|
-----------------------------------------------------------------|

"Ilove to see her smile back at me and i know she is happy"
-3-5-3----5/6-6--6--6-6--5---3--1---------1----3------------------|
---------------3--3-------------------2------------------3----4-3-|
----------------3--3---------------------------------------3------|
-1-3-1----3/5---------5--3---1------------0----1------------------|
--------------------------------1-----4------------------1--1-2-1-|
------------------------------------------------------------------|

Ending
----------6-|
-3----4-----|
---3----7---|
------------|
-1--1-2-----|
--------6---|
Related for All These Things tab