Guitaretab - guitar tabs
Song name
# A B C D E F G H I J K L M N O P Q R S T U V W X Y Z

Stephen Speaks - All These Thing tab

This is a really fun song and is really easy too but noone seemes to play it like I do
so I thought I would tab it out the way I play it. Any ways this is a really great love
song and is great to play for that special someone.
I WOULD LIKE TO DEDICATE THIS TAB TO MY GIRL ALISHA. Enjoy


*****************************************************************************
SONG  : ALL THESE THING
ALBUM : Doubting Thomas
BAND  : Stephen Speaks
TUNING: Standard
CAPO  : 3
*****************************************************************************


[------------] [------------------------------------------------------------]
[--0----1--0-] [--------------0-----1---0-----------------------1---1-1-1-1-]
[----0-------] [-----------------0--------------------------------0---------]
[------------] [------------------------------------------------------------]
[-------0----] [--------------------0---------------------------0---0-0-0-0-]
[--3-------3-] [--------------3---------3-----------------------------------]
   Play       Maybe its her face                  No makeup at all
  Intro       Maybe its her hair         Soft golden and windblown
 1st time     
  only           

[---------------------------------------------------------------------------]
[----------5----3----1-----------------------0---1---0----------------------]
[------------0---0----0------------------------0----------------------------]
[---------------------------------------------------------------------------]
[----------3----2----0---------------------------0--------------------------]
[--------------------------------------------3--------3---------------------]
   As she tells me shes ----- not  beautiful
    As we drive throught the streets of town

[---------------------------------------------------------------------------]
[-------1----3----5-------3------1----------------------------0---1---0-----]
[---------0----0-----0------0-----------------------------------0-----------]
[---------------------------------------------------------------------------]
[-------0----2----3-------2------0--------------------------------0---------]
[-------------------------------------------------------------3-------3-----]
  It could   be  all   these  things  But I think its her smile

[---------------------------------------------------------------------------]
[----------------0-----1---0------------------------------1---1-1-1-1-------]
[-------------------0---------------------------------------0---------------]
[---------------------------------------------------------------------------]
[----------------------0----------------------------------0---0-0-0-0-------]
[----------------3---------3------------------------------------------------]
 Maybe its her laugh           When she rolls back and sighs
 Maybe its her smell                    The lotion she wears
[ Tab from: http://www.guitaretab.com/s/stephen-speaks/54312.html ]
[---------------------------------------------------------------------------]
[----------5----3----1-----------------------0---1---0----------------------]
[------------0---0----0------------------------0----------------------------]
[---------------------------------------------------------------------------]
[----------3----2----0---------------------------0--------------------------]
[--------------------------------------------3--------3---------------------]
 Or my eyebrows when I do something stupid
 Or how my hands smell like country pair for days

[---------------------------------------------------------------------------]
[----------1----3----5-------3------1----------------------------0---1---0--]
[------------0----0-----0------0-----------------------------------0--------]
[---------------------------------------------------------------------------]
[----------0----2----3-------2------0--------------------------------0------]
[----------------------------------------------------------------3-------3--]
You know it could be all these things But I think mostly its her smile

[---------------------------------------------------------------------------]
[------5---7-----8-8-8-----5---3-1-0---0---1---3---5------------0---1--0----]
[--------0---0---------------0-------0-------0---0----------------0---------]
[---------------------------------------------------------------------------]
[------3---5-----7-7-7-----3---2-0---------0---2---3----------------0-------]
[----------------------------------3---3------------------------3------3----]
 Cause I love to see her smile back at me  and I know she is happy

[---------------------------------------------------------------------------]
[----------------0-----1---0------------------------------1---1-1-1-1-------]
[-------------------0---------------------------------------0---------------]
[---------------------------------------------------------------------------]
[----------------------0----------------------------------0---0-0-0-0-------]
[----------------3---------3------------------------------------------------]
A)Maybe its her touch                    The feel of her hands
B) Maybe its her  eyes                 Gently searching by soul

[---------------------------------------------------------------------------]
[----------5----3----1-----------------------0---1---0----------------------]
[------------0---0----0------------------------0----------------------------]
[---------------------------------------------------------------------------]
[----------3----2----0---------------------------0--------------------------]
[--------------------------------------------3--------3---------------------]
A)When she puts  her tiny fingers in mine

[---------------------------------------------------------------------------]
[--------5---3---1---3---5---3---1---3---5---3---1--------------------------]
[----------0---0---0---0---0---0---0---0---0---0----------------------------]
[---------------------------------------------------------------------------]
[--------3---2---0---2---3---2---0---2---3---2---0--------------------------]
[---------------------------------------------------------------------------]
B)Still nothing stirs me like when i see those lips roll and i see her smile 

[--------------------]
[------0---1-0-------]
[--------0-----------]
[--------------------]
[----------0---------]
[------3-----3-------]

[---------------------------------------------------------------------------]
[------5---7-----8-8-8-----5---3-1-0---0---1---3---5------------0---1--0--8-]
[--------0---0---------------0-------0-------0---0----------------0---------]
[---------------------------------------------------------------------------]
[------3---5-----7-7-7-----3---2-0---------0---2---3----------------0-------]
[----------------------------------3---3------------------------3------3----]
 Cause I love to see her smile back at me  and I know she is happy
Related for All These Thing tab