Guitaretab - guitar tabs
Song name
# A B C D E F G H I J K L M N O P Q R S T U V W X Y Z

Stephen Speaks - February Wind tab

FEBRUARY WIND
By: Stephen Speaks
Trascribed by: Gemmo Fernandez

Verses:

e|3p2----------3p2---------3p2--------------------|
B|----0-3h5-0------0-0h3-5-----5-5h7-3------------|
G|-------------------------------------0h2-2h4-2-0|
D|------------------------------------------------|
A|------------------------------------------------|
E|------------------------------------------------|

e|----------------3-------3------|
B|--------0-3---3-----3-------3--|
G|------0-----0-----0---0---0---0|
D|-------------------------------|
A|-------------------------------|
E|0h2-3--------------------------|

Second Plucking Pattern:

e|----------------3-------3------|
B|--------0-3---3-----3-------3--|
G|------0-----0-----0---0---0---0|
D|-------------------------------|
A|-------------------------------|
E|2------------------------------|

e|----------------3-------3------|
B|--------0-3---3-----3-------3--|
G|------0-----0-----0---0---0---0|
D|-------------------------------|
A|0h2----------------------------|
E|-------------------------------|

e|----------------3-------3------|
B|--------0-3---3-----3-------3--|
G|------0-----0-----0---0---0---0|
D|-------------------------------|
A|--3----------------------------|
E|-------------------------------|

NOTE: For the (e), (B), and (G) Strings just invent your own plucking pattern.

Chorus:
Strumming:
e|3--3--3--3|
B|3--3--3--3|
G|----------|
D|----------|
A|------2--0|
E|3--2------|
[ Tab from: http://www.guitaretab.com/s/stephen-speaks/59248.html ]
NOTE: Repeat the plucking and strumming part until it reaches the other plucking part.

e|-------------------------------|
B|-------------------------------|
G|0-2--4---0-2--4---0-2-4-4h5-4-0|
D|-------------------------------|
A|-------------------------------|
E|-------------------------------|

e|------------------------------------------|
B|7-5-7---7-5-7---8-7-5-3-1-0-3-5---0-3-5-0-|
G|------------------------------------------|
D|------------------------------------------|
A|------------------------------------------|
E|------------------------------------------|

x2

e|-------------------------------|
B|-------------------------------|
G|0-2--4---0-2--4---0-2-4-4h5-4-0|
D|-------------------------------|
A|-------------------------------|
E|-------------------------------|


e|------------------------------------------|
B|0-3-5-3-7-5-8---8-7-5-3-1-0-3-5---0-3-5-0-|
G|------------------------------------------|
D|------------------------------------------|
A|------------------------------------------|
E|------------------------------------------|

e|-------------------------------|
B|-------------------------------|
G|0-2--4---0-2--4---0-2-4-4h5-4-0|
D|-------------------------------|
A|-------------------------------|
E|-------------------------------|

e|------------------------|
B|3-3-3-1-1-1--3-3-3-1-1-1|
G|------------------------|
D|------------------------|
A|------------------------|
E|------------------------|

e|----------3|
B|--------3--|
G|------0----|
D|----0------|
A|--2--------|
E|3----------|
Related for February Wind tab
Advertisement will be closed in 10 seconds