Song name
# A B C D E F G H I J K L M N O P Q R S T U V W X Y Z

Stephen Stills - Treetop Flyer tab

-------------------------------------------------------------------------------
			     Treetop Flyer - Stephen Stills
-------------------------------------------------------------------------------
Tabbed by: Chris Gennone
Email: Serpico104@aol.com

Tuning: Standard

This is just a rough version from playing it by ear to the first solo in the song. I 
it's not 100% correct but I think it's pretty close.

e|------------------------------------------------------------------------|
B|------------------------------------------------------------------------|
G|------------------------------------------------------------------------|
D|--------------3------3--5--3-----------3bh5s7--5--7b--5b----------------|
A|---------3h5-----5b-----------5--3--5---------------------5--3b---------|
E|--3h4h5----------------------------------------------------------5--3b--|

e|-------------------------------------------------------------------------|
B|-------------------6b------8--6------------------------------------------|
G|-------------5h7b------7b--------7--5b-----------------------------------|
D|-----3h5bs7-----------------------------5--3b-----3--5--3-----------3--5-|
A|--5--------------------------------------------5-----------5--3--5-------|
E|-------------------------------------------------------------------------|

e|-------------------------------------------------------------------------|
B|----------------------8b--10--8--6---------------------------------------|
G|----------------5h7b----------------7b--5b-------------------------------|
D|--3-----3--5s7------------------------------5--3b------------------------|
A|-----5---------------------------------------------5--3b-----------------|
E|----------------------------------------------------------5--3-----------|
Tap to rate this tab
# A B C D E F G H I J K L M N O P Q R S T U V W X Y Z