Song name
# A B C D E F G H I J K L M N O P Q R S T U V W X Y Z

Steppenwolf - The Pusher chords

Highlighted       Show chord diagrams
Artist: Steppenwolf
Song: The Pusher

The whole song is basicly 2 riffs. The chords are in the right order but you will
have to listen to the song to figure out how many times they are strummed.

Riff1:
    G        C/G       D6sus      C/G
----X---------X----------X---------X--------|
----X---------1----------3---------1--------|
----0---------0----------0---------0--------|
----0---------2----------3---------2--------|
----2---------X----------X---------X--------|
----3---------3----------3---------3--------|
This repeats several times

Riff2:
    C         F/C      C2sus4        F/C
---------------1----------------------1--------|
----1----------1----------3-----------1--------|
----0----------2----------------------2--------|
----2----------3----------3-----------3--------|
----3----------3----------3-----------3--------|
-----------------------------------------------|
This repeats several times

Fell free to leave comments
Tap to rate this tab
 
# A B C D E F G H I J K L M N O P Q R S T U V W X Y Z