Song name
# A B C D E F G H I J K L M N O P Q R S T U V W X Y Z

Steppingstones - One Word Too Late tab

-Capo 3rd fret-

-------------------------------------|
--------3-------3-------3------------|
------0---0-------0-------0----0-----|
----2-------2-------2-------2--------|
--3----------------------------------|
-------------------------------------|

-------------------------------------|
--------3------3---------------------|
------0---0--------------------------|
----2-------2------------------------|
--0----------------------------------|
-------------------------------------|
Tap to rate this tab
# A B C D E F G H I J K L M N O P Q R S T U V W X Y Z