Song name
# A B C D E F G H I J K L M N O P Q R S T U V W X Y Z

Stereo Motion - Im Here To Save You tab

Help us improve GuitareTab! Take a short survey!
-----------------------------------------------------------------
I'M HERE TO SAVE YOU - Stereo Motion
-----------------------------------------------------------------
Tabbed by:nick schuurman	
Tuning:DROP D (DADGBe)

VERSE

e|---------------------------------|
B|-----1-------1-------1---3---1---|
G|---2---2---2---2---2---2---2---2-| (REPEAT)
D|-----------------0---------------|
A|-0-------0-----------------------|
D|---------------------------------|

CHORUS

e|---------------------------------|
B|-----1-------1-------3------1----|
G|---2---2---2---2---2---2--2---2--| (REPEAT)
D|---------------------------------|
A|-0-------------------------------|
D|---------3-------0-------2-------|

BRIDGE

  /   P  A  L  M   M  U  T  E    \   
e|---------------------------------------------0|
B|---------------------------------------------0|
G|-7-7-7-7-7-7-7-7---------------------------7-7|
D|-7-7-7-7-7-7-7-7-7-7-7-7-7-7-7-7--3X THEN--7-7|
A|-5-5-5-5-5-5-5-5-7-7-7-7-7-7-7-7-----------5-5|
D|-----------------7-7-7-7-7-7-7-7-------------5|

VERSE

e|---------------------------------|
B|-----1-------1-------1---3---1---|
G|---2---2---2---2---2---2---2---2-| (REPEAT)
D|-----------------0---------------|
A|-0-------0-----------------------|
D|---------------------------------|

CHORUS

BRIDGE

CHORUS

 | / slide up
| \ slide down
| h hammer-on
| p pull-off
| ~ vibrato
| + harmonic
| x Mute note
Related for Im Here To Save You tab