Stereo Pony - Smilife tab

The intro to the song Smilife by Stereopony. Standard tuning with no capo.
This is the first tabs I did and it sounds pretty good to me. Feel free to
let me know if these tabs are wrong.


---------------|
---------------|
---9--9----9---|
---9--9----9---|
---7--7----7---|
---------------|

------------------------------------------------------------|
---12-12---------12-12---------12-12------------------------|
-----------9-9-----------9-9-----------9-9---8-8---9-9------|
------------------------------------------------------------|
------------------------------------------------------------|
------------------------------------------------------------|

------------------------------------------------------------|
---12-12---------12-12---------12-12------------------------|
-----------9-9-----------9-9-----------9-9---8-8---6-6------|
------------------------------------------------------------|
------------------------------------------------------------|
------------------------------------------------------------|

------------------------------------------------------------|
---12-12---------12-12---------12-12------------------------|
-----------9-9-----------9-9-----------9-9---8-8---9-9------|
------------------------------------------------------------|
------------------------------------------------------------|
------------------------------------------------------------|

----------------------------------12---12---12--------------|
---12-12---------12-12------------12---12---12--------------|
-----------9-9-----------9-9------12---12---12--------------|
------------------------------------------------------------|
------------------------------------------------------------|
------------------------------------------------------------|
Tap to rate this tab
 
# A B C D E F G H I J K L M N O P Q R S T U V W X Y Z