Song name
# A B C D E F G H I J K L M N O P Q R S T U V W X Y Z

Stereo Pony - Nagareboshi tab

 ;----------------------------------------------;
 | Artist: Stereo Pony                          |
 |----------------------------------------------|
 | Title: Nagareboshi                           |
 |----------------------------------------------|
 | Tabbed by: nheryui93                         |
 ;----------------------------------------------;

Tuning: (EADGBe) Standard

 (00:27-00:38)
|---4p6-4-----3p4-3-----4p6-4-----------|
|-4-------1-3-------6-4-------1-3-4-3-4-|
|---------------------------------------|
|---------------------------------------|
|---------------------------------------|
|---------------------------------------|

 (01:29-1:40)
|---4p6-4-----3p4-3-----4p6-4-----------|
|-4-------1-3-------6-4-------1-3-4-3-4-|
|---------------------------------------|
|---------------------------------------|
|---------------------------------------|
|---------------------------------------|


Thou this part is as the same as the firt part
Ive made a different one..........
If you use the (00:27-00:38)tab..still it can work..

 (03:46-04:08)
|-------------------------4p6-4-----------|
|----9p11-9-----8p9-8-6-4-------1-3-4-3-4-|
|-s8--------5-7---------------------------|
|-----------------------------------------|
|-----------------------------------------|
|-----------------------------------------|
  na..na...na...na....na...na....na..na
  na..na...na...nan....na...na....na....

|------------------------4p6-4-----------|
|---9p11-9-----8p9-8-6-4-------1-3-4-3-4-|
|-8--------5-7---------------------------|
|----------------------------------------|
|----------------------------------------|
|----------------------------------------|
  na..na...na...na....na...na....na..na
  na..na...na...nan....na...na....na....
Tap to rate this tab
 
# A B C D E F G H I J K L M N O P Q R S T U V W X Y Z