Song name
# A B C D E F G H I J K L M N O P Q R S T U V W X Y Z

Stereo - Last Forever tab

Hi all!

I haven't seen any tabs of this song so I decided to tab it myself. 
I think its pretty close, let me know how you think about it and rate it


tabber:	paul westerink
mail: 	paul11ajax@hotmail.com

have fun

standard tuning
. = palmmute

INTRO 
|-----------------|-----------------|-----------------|----------------|
|------6----------|------5----------|-----------------|----------------|
|--5-5---5--5-----|--5-5---5--5-----|------7----------|------7---------|
|-----------------|-----------------|--7-7---7--7-----|--7-7---7--7----|
|-----------------|-----------------|-----------------|----------------|
|-----------------|-----------------|-----------------|----------------|x2

VERSE 1
|--------------------------|--------------------------|-----------------------------|
|--------------------------|--------------------------|-----------------------------|
|--------------------------|--------------------------|-----------------------------|
|--10-10-10-10-10-10-10-10-|--10-10-10-10-10-10-10-10-|-----------------------------|
|--8--8--8--8--8--8--8--8--|--7--7--7--7--7--7--7--7--|--12-12-12-12-12-12-12-12----|
|--------------------------|--------------------------|--10-10-10-10-10-10-10-10----|
pm .  .  .  .  .  .  .  .     .  .  .  .  .  .  .  .      .  .  .  .  .  .  .  .


|--------------------------|-------------------|--------------------------|-------------------|
|--------------------------|-------------------|--------------------------|-------------------|
|--------------------------|-------------------|--------------------------|-------------------|
|--------------------------|-------------------|--------------------------|-------------------|
|--12-12-12-12-12-12-12-12-|--8-8-8-8-8-8-8-8--|--10-10-10-10-10-10-10-10-|--7-7-7-7-7-7-7-7--|
|--10-10-10-10-10-10-10-10-|--6-6-6-6-6-6-6-6--|--8--8--8--8--8--8--8--8--|--5-5-5-5-5-5-5-5--|
pm .  .  .  .  .  .  .  .     . . . . . . . .     .  .  .  .  .  .  .  .     . . . . . . . .

|-------------------|
|-------------------|
|-------------------|
|-------------------|
|--8-8-8-8-8-8------|
|--6-6-6-6-6-6------|
pm . . . . . .

CHORUS
|--------------------------|--------------------------|----------------------------|
|--------------------------|--------------------------|----------------------------|
|--10-10-10-10-10-10-10-10-|--10-10-10-10-10-10-10-10-|----------------------------|
|--10-10-10-10-10-10-10-10-|--10-10-10-10-10-10-10-10-|--12-12-12-12-12-12-12-12---|
|--8--8--8--8--8--8--8--8--|--7--7--7--7--7--7--7--7--|--12-12-12-12-12-12-12-12---|
|--------------------------|--------------------------|--10-10-10-10-10-10-10-10---|

|-------------------|
|-------------------|
|-------------------|
|--8-8-8-8-8-8-8-8--|
|--8-8-8-8-8-8-8-8--|
|--6-6-6-6-6-6-6-6--|x2

VERSE 2
|------------------|------------------|------------------|---------------------------|
|------------------|------------------|------------------|---------------------------|
|------------------|--7-7-7-7-7-7-7-7-|------------------|--10-10-10-10-10-10-10-10--|
|--7-7-7-7-7-7-7-7-|--7-7-7-7-7-7-7-7-|--8-8-8-8-8-8-8-8-|--10-10-10-10-10-10-10-10--|
|--7-7-7-7-7-7-7-7-|--5-5-5-5-5-5-5-5-|--8-8-8-8-8-8-8-8-|--8--8--8--8--8--8--8--8---|
|--5-5-5-5-5-5-5-5-|------------------|--6-6-6-6-6-6-6-6-|---------------------------|

-----------------------------------
REPEAT THE INTRO - ONLY 1 TIME

THEN

REPEAT VERSE 1

then

REPEAT CHORUS 

then

REPEAT VERSE 2 - DO THAT 2 TIMES

(bridge thing)

then

REPEAT CHORUS AGAIN

then

REPEAT VERSE 2

then 

CHORUS - ONLY 1 TIME

then

REPEAT VERSE 2 AGAIN - 2 TIMES


-----------------------------------

FINAL CHORD - let it ring
|-------------|
|-------------|
|--10---------|
|--10---------|
|--8----------|
|-------------|

that's it!

comment and rate please
Tap to rate this tab
# A B C D E F G H I J K L M N O P Q R S T U V W X Y Z