Song name
# A B C D E F G H I J K L M N O P Q R S T U V W X Y Z

Stereo - Monogamy tab

MONOGAMY - Stereo


!!READ THIS IF YOU WANNA PLAY THIS CORRECTLY!!

First of all. This song sounds the best when played by 2 guitars (DOHH!)   ;-)
I tried to split the song into 2 guitar parts. The rhythm and lead guitar.

The intro and chorus are a call-and-response-style. So first guitar 2 plays two chords. 
guitar 1 plays two chords.
This repeats itself the whole intro/chorus.

Verse 2 is kinda long, because of the variations, look closely.

please RATE and COMMENT

tabber: paul westerink
mail: paul11ajax@hotmail.com

Tuning:
(Lead) Guitar 1: Standard (E A D G B E)
(Rhythm) Guitar 2: Standard (E A D G B E)


Legenda
| b bend
| ()softly played note
| x dead note
| . palm mute
| \ slide down
| / slide up


intro - guitar 1
|-19b-19b---(19b)---(19b)--|
|--------------------------|
|--------------------------|
|--------------------------|
|--------------------------|
|--------------------------|

intro - guitar 2
|--------------------------------------------------------------------|
|--------------------------------------------------------------------|
|----------------------------------6-6-----6-6-----4-4-----4-4-------|
|--7-7-----7-7-----6-6-----6-6-----6-6-----6-6-----4-4-----4-4-------|
|--7-7-----7-7-----6-6-----6-6-----4-4-----4-4-----2-2-----2-2-------|
|--5-5-----5-5-----4-4-----4-4---------------------------------------|x2
intro - guitar 1
|--------------------------------------------------------------------|
|-----17-17---17-17---17-17---17-17---17-17---17-17---17-17---17-17--|
|-----16-16---16-16---16-16---16-16---16-16---16-16---16-16---16-16--|
|-----14-14---14-14---14-14---14-14---14-14---14-14---14-14---14-14--|
|--------------------------------------------------------------------|
|--------------------------------------------------------------------|x2

verse 1 - guitar 2 'Looking out, I'm counting all the shadows on the moon'
|-----------------------------------------------------------------------|
|-----------------------------------------------------------------------|
|-----------------------------------------------------------------------|
|--------------------6-6-6-6-6-6-6-6----4-4-4-4-4-4-4-4-----------7--7--|
|-7-7-7-7-7-7-7-7----4-4-4-4-4-4-4-4----2-2-2-2-2-2-2-2-----------7--7--|
|-5-5-5-5-5-5-5-5-------------------------------------------------4--5--|x2
pm. . . . . . . .    . . . . . . . .    . . . . . . . .
verse 1 - guitar 1
|-----------------------------------------------------------------------|
|----------------------------------------------------------5-5-5--5--5--|
|----------------------------------------------------------4-4-4--4--4--|
|----------------------------------------------------------1/2-2--2--2--|
|-----------------------------------------------------------------------|
|-----------------------------------------------------------------------|x2


verse 1 - guitar 2 'So arrest us, it makes me quite aware that he's not there.
|-----------------------------------------------------------------------|
|-----------------------------------------------------------------------|
|-----------------------------------------------------------------------|
|--------------------6-6-6-6-6-6-6-6----4-4-4-4-4-4-4-4-----------7--7--|
|-7-7-7-7-7-7-7-7----4-4-4-4-4-4-4-4----2-2-2-2-2-2-2-2-----------7--7--|
|-5-5-5-5-5-5-5-5-------------------------------------------------4--5--|
pm. . . . . . . .    . . . . . . . .    . . . . . . . .
verse 1 - guitar 1
|-----11~---------------------------------------------------------------|
|----------------------------------------------------------5-5-5--5--5--|
|---9------------------------------------------------------4-4-4--4--4--|
|----------------------------------------------------------1/2-2--2--2--|
|-----------------------------------------------------------------------|
|-----------------------------------------------------------------------|

prechorus - guitar 1 'Come get me, I can be your'
|-19b-19b---(19b)---19b----|
|--------------------------|
|--------------------------|
|--------------------------|
|--------------------------|
|--------------------------|

chorus - guitar 2 'Monogamy is a bullshit story'
|--------------------------------------------------------------------|
|--------------------------------------------------------------------|
|----------------------------------6-6-----6-6-----4-4-----4-4-------|
|--7-7-----7-7-----6-6-----6-6-----6-6-----6-6-----4-4-----4-4-------|
|--7-7-----7-7-----6-6-----6-6-----4-4-----4-4-----2-2-----2-2-------|
|--5-5-----5-5-----4-4-----4-4---------------------------------------|x2
chorus - guitar 1
|--------------------------------------------------------------------|
|-----17-17---17-17---17-17---17-17---17-17---17-17---17-17---17-17--|
|-----16-16---16-16---16-16---16-16---16-16---16-16---16-16---16-16--|
|-----14-14---14-14---14-14---14-14---14-14---14-14---14-14---14-14--|
|--------------------------------------------------------------------|
|--------------------------------------------------------------------|x2


interlude
|---------|
|---------|
|---------|
|--7---7--|
|--7---7--|
|--4---5--|

verse 2 - guitar 2 'Well he and I, I know we couldn't last another day'
|-----------------------------------------------------------------------|
|-----------------------------------------------------------------------|
|-----------------------------------------------------------------------|
|--------------------6-6-6-6-6-6-6-6----4-4-4-4-4-4-4-4-----------7--7--|
|-7-7-7-7-7-7-7-7----4-4-4-4-4-4-4-4----2-2-2-2-2-2-2-2-----------7--7--|
|-5-5-5-5-5-5-5-5-------------------------------------------------4--5--|
pm. . . . . . . .    . . . . . . . .    . . . . . . . .
verse 2 - guitar 1
|-------------------------11~-------------------------------------------|
|----------------------------------------------------------5-5-5--5--5--|
|-----------------------9----------------------------------4-4-4--4--4--|
|----------------------------------------------------------1/2-2--2--2--|
|-----------------------------------------------------------------------|
|-----------------------------------------------------------------------|

verse 2 - guitar 2 'So this night, we will be talking it over and over again'
|-----------------------------------------------------------------------|
|-----------------------------------------------------------------------|
|-----------------------------------------------------------------------|
|--------------------6-6-6-6-6-6-6-6----4-4-4-4-4-4-4-4-----------7--7--|
|-7-7-7-7-7-7-7-7----4-4-4-4-4-4-4-4----2-2-2-2-2-2-2-2-----------7--7--|
|-5-5-5-5-5-5-5-5-------------------------------------------------4--5--|
pm. . . . . . . .    . . . . . . . .    . . . . . . . .
verse 2 - guitar 1
|-----------------------------------------------------------------------|
|----------------------------------------------------------5-5-5--5--5--|
|----------------------------------------------------------4-4-4--4--4--|
|----------------------------------------------------------1/2-2--2--2--|
|-----------------------------------------------------------------------|
|-----------------------------------------------------------------------|

verse 2 - guitar 2 'How I want him just to be himself'
|-----------------------------------------------------------------------|
|-----------------------------------------------------------------------|
|--------------------6--------------------------------------------------|
|--------------------6-6-6-6-6-6-6-6----4-4-4-4-4-4-4-4-----------7--7--|
|-7-7-7-7-7-7-7------4-4-4-4-4-4-4-4----2-2-2-2-2-2-2-2-----------7--7--|
|-5-5-5-5-5-5-5---------------------------------------------------4--5--|
pm. . . . . . .        . . . . . . .    . . . . . . . .
verse 2 - guitar 1
|-----11~---------------------------------------------------------------|
|----------------------------------------------------------5-5-5--5--5--|
|---9------------------------------------------------------4-4-4--4--4--|
|----------------------------------------------------------1/2-2--2--2--|
|-----------------------------------------------------------------------|
|-----------------------------------------------------------------------|

prechorus - guitar 2 'Come get me, I cold be yours'
|--------|
|--------|
|--x--x--|
|--x--x--|
|--x--x--|
|--x--x--|x6
prechorus - guitar 1 'Come get me, I can be your'
|-19b-19b---(19b)---19b----|
|--------------------------|
|--------------------------|
|--------------------------|
|--------------------------|
|--------------------------|

chorus - guitar 2 'monogamy is a bullshit story'
|--------------------------------------------------------------------|
|--------------------------------------------------------------------|
|----------------------------------6-6-----6-6-----4-4-----4-4-------|
|--7-7-----7-7-----6-6-----6-6-----6-6-----6-6-----4-4-----4-4-------|
|--7-7-----7-7-----6-6-----6-6-----4-4-----4-4-----2-2-----2-2-------|
|--5-5-----5-5-----4-4-----4-4---------------------------------------|x4
chorus - guitar 1
|--------------------------------------------------------------------|
|-----17-17---17-17---17-17---17-17---17-17---17-17---17-17---17-17--|
|-----16-16---16-16---16-16---16-16---16-16---16-16---16-16---16-16--|
|-----14-14---14-14---14-14---14-14---14-14---14-14---14-14---14-14--|
|--------------------------------------------------------------------|
|--------------------------------------------------------------------|x4

bridge - guitar 2 'One man ain't enough, no I just can't get enough'
|----------------------------------------------------------------|
|----------------------------------------------------------------|
|----------------------------------------------------------------|
|--9---x-x-9----9---(9)---7---7---9---9----7-----------77777777--|
|--9---x-x-9----9---(9)---7---7---9---9----7---7777777777777777--|
|--7---x-x-7----7---(7)---5---5---7---7----5---5555555555555555--|
                                            pm ........

outro - guitar 2 'Monogamy is a bullshit story'
|----------------------------------------|
|----------------------------------------|
|----------------------------------------|
|--11-11-----11-11-----9-9-----9-9-------|
|--11-11-----11-11-----9-9-----9-9-------|
|--9--9------9--9------7-7-----7-7-------|
outro - guitar 1
|----------------------------------------|
|------17-17------17-17---17-17---17-17--|
|------16-16------16-16---16-16---16-16--|
|------14-14------14-14---14-14---14-14--|
|----------------------------------------|
|----------------------------------------|

outro - guitar 2
|--------------------------------------------------------------------|
|--------------------------------------------------------------------|
|----------------------------------6-6-----6-6-----9-9-----9-9-------|
|--7-7-----7-7-----6-6-----6-6-----6-6-----6-6-----9-9-----9-9-------|
|--7-7-----7-7-----6-6-----6-6-----4-4-----4-4-----7-7-----7-7-------|
|--5-5-----5-5-----4-4-----4-4---------------------------------------|x2
outro - guitar 1
|--------------------------------------------------------------------|
|-----17-17---17-17---17-17---17-17---17-17---17-17---17-17---17-17--|
|-----16-16---16-16---16-16---16-16---16-16---16-16---16-16---16-16--|
|-----14-14---14-14---14-14---14-14---14-14---14-14---14-14---14-14--|
|--------------------------------------------------------------------|
|--------------------------------------------------------------------|x2


outro - guitar 2
|---------------------------------------------------------|
|---------------------------------------------------------|
|----------------------------------6-6-----6-6-----9------|
|--7-7-----7-7-----6-6-----6-6-----6-6-----6-6-----9------|
|--7-7-----7-7-----6-6-----6-6-----4-4-----4-4-----7------|
|--5-5-----5-5-----4-4-----4-4----------------------------|
outro - guitar 1
|---------------------------------------------------------|
|-----17-17---17-17---17-17---17-17---17-17---17-17-------|
|-----16-16---16-16---16-16---16-16---16-16---16-16-------|
|-----14-14---14-14---14-14---14-14---14-14---14-14-------|
|---------------------------------------------------------|
|---------------------------------------------------------|

check out my profile for more songs!! :D
Tap to rate this tab
 
# A B C D E F G H I J K L M N O P Q R S T U V W X Y Z