Song name
# A B C D E F G H I J K L M N O P Q R S T U V W X Y Z

Stereo - Rebel With A Cause tab

Song - Rebel with a cause
Band - Stereo
Album - Monogamy
Tabber - Daan Adriaanse
Tuning - Drop D


Intro Guitar 1 (With Wah i believe)

e------------------------------------------------------------|
b------------------------------------------------------------|
g------------------------------------------------------------|
d--------------------3---------------------------------------|
a---------------3--5---5-5-3h5p3p0---------------------------|
D--3--0---0---3----------------------------------------------| 2x

Main riff guitar 1

e------------------------------------------------------------|
b------------------------------------------------------------|
g------------------------------------------------------------|
d--------------------3---------------------------------------|
a---------------3--5---5-5-3h5p3p0---------------------------|
D--3--0---0---3----------------------------------------------|

While the mane riff is played,, the other guitar playes this 2 times

Main riff Guitar 2    also played a couple times during the verses, but the 3th chord 
an F-chord(3) but a D(0)

e-------------|
b-------------|
g-------------|
d-3-3-3-0-----|
a-3-3-3-0-----|
D-3-3-3-0-----|

While the mane riff or verse is played,, the keys play these high notes,, you can also 
on guitar

e----------------|
b----------------|
g---14-13-17-16--|
d---x--x--x--x---|
a---12-11-15-14--|
D----------------|

Chorus

Main riff 2x

Verse

Chorus, or 2nd part verse
Not really sure what is played here,, suggestions? feel free to tell me

Break

e-----------------------|
b-----------------------|
g-----------------------|
d-3-5-3-5-3-0-----------|
a-3-5-3-5-3-0-----------|
D-3-5-3-5-3-0-----------| 4x

Breaked down verse,, chords for bass

D-0-3-5-6-7-|

Main riff

Outro riff
e-----------------------|
b-----------------------|
g-------12-13-----------|
d-12-15-------15-12-----|
a-----------------------|
D-----------------------|
Tap to rate this tab
 
# A B C D E F G H I J K L M N O P Q R S T U V W X Y Z