Song name
# A B C D E F G H I J K L M N O P Q R S T U V W X Y Z

Stereoblis - Eight Half Letters tab

Help us improve GuitareTab! Take a short survey!
Band: Stereoblis
Song: Eight Half Letter
Stereoblis' artist site: http://www.garageband.com/artist/stereoblis
This song was played on Smallville. Just love the song and I saw that no-one has tabbed 
so i just had to.
Tabbed by: Justin Platt

Tuning: Dropped D: DADGBe

Verse:

e--------------------------------|
B--------------------------------|
G--------------------------------|
D--------------------------------| x4
A-10-10-xxx-5-5-xxx-6-6-xxx-1-1--|
D-10-10-xxx-5-5-xxx-6-6-xxx-1-1--|

At the end of the second verse a little riff is played:

e--------------------------------|
B--------------------------------|
G--------------------------------|
D-13-13-12-10--------------------|
A--------------------------------|
D--------------------------------|

Bridge:

e----------|
B------11--|
G----------|
D---12-----| x4
A----------|
D--9-------|

Chorus:

e-------------------------------------------|
B-------------------------------------------|
G-------------------------------------------| x2
D-------------------------------------------|
A-10-10-10-10--6-6-6-6--5-5-5-5-5--6-6-6-6--|
D-10-10-10-10--6-6-6-6--5-5-5-5-5--6-6-6-6--|

or can be played:

e-------------------------------------------|
B-------------------------------------------|
G-------------------------------------------| x2
D-------------------------------------------|
A-10-10-10-10--6-6-6-6--5-5-5-5-5--1-1-1-1--|
D-10-10-10-10--6-6-6-6--5-5-5-5-5--1-1-1-1--|

Verses after the first chorus:

e--------------------|
B--------------------|
G--------------------|
D--------------------| x4
A-5-5--6-6--1-1-1-1--|
D-5-5--6-6--1-1-1-1--|

Chorus x2

Bridge x4

Chorus x1

Any feedback on this tab just send to jaymaniac7@hotmail.com thanx
Related for Eight Half Letters tab