Song name
# A B C D E F G H I J K L M N O P Q R S T U V W X Y Z

Stereolab - French Disko tab

STEREOLAB - FRENCH DISKO

Capo fret 8

INTRO
----------------------------|
--------------0-------------|
--------------4-------------|
--------------2-------------|
--------------2-------------|
----------------------------|

VERSE
----------------------------------------------------------------------------|
--------------5------------3-------------1------------0---------------------|
--------------0------------0-------------0------------0---------------------|
--------------2------------2-------------2------------2---------------------|
--------------2------------2-------------3------------2---------------------|
----------------------------------------------------------------------------|

SOLO
--0--0--0--0--0----2---2---0--0--0--0--0---2---2---0--0--0--0--0---3--2---0--|
--5--5--5--5--5------------5--5--5--5--5-----------5--5--5--5--5----------5--|
-----------------------------------------------------------------------------|
-----------------------------------------------------------------------------|
-----------------------------------------------------------------------------|
-----------------------------------------------------------------------------|
Tap to rate this tab
# A B C D E F G H I J K L M N O P Q R S T U V W X Y Z