Song name
# A B C D E F G H I J K L M N O P Q R S T U V W X Y Z

Stereolab - Changer tab

STEREOLAB - CHANGER


GUITAR 1

e|-----------------------------------------------------------| 
B|-----------------------------------------------------------| 
G|-----------------------------------------------------------| 
D|---13-13-13-13-13-13-13-13---13-13-13-13-13-13-13----------| 
A|---15-15-15-15-15-15-15-15---16-16-16-16-16-16-16----------| 
E|---16-16-16-16-16-16-16-16---16-16-16-16-16-16-16----------|


GUITAR 2

e|-----------------------------------------------------------| 
B|-----------------------------------------------------------| 
G|---4-4---4-4---4---5-5---5-5---5---------------------------| 
D|-------5-----5---5-----5-----5----5------------------------| 
A|-----------------------------------------------------------| 
E|-----------------------------------------------------------|



RIFF 1

e|-----------------------------------------------------------| 
B|-----------------------------------------------------------| 
G|-----7--7--7--7--7--7--7--7---7--7--7--7--7--7--7--7-------| 
D|-----9--9--9--9--9--9--9--9--10-10-10-10-10-10-10-10-------| 
A|----10-10-10-10-10-10-10-10--10-10-10-10-10-10-10-10-------| 
E|-----------------------------------------------------------|


RIFF 2

e|-----------------------------------------------------------| 
B|---3-3-3-3-3-3-3-3--3-3-3-3-3-3-3-3------------------------| 
G|---4-4-4-4-4-4-4-4--5-5-5-5-5-5-5-5------------------------| 
D|---5-5-5-5-5-5-5-5--5-5-5-5-5-5-5-5------------------------| 
A|-----------------------------------------------------------| 
E|-----------------------------------------------------------|
Tap to rate this tab
 
# A B C D E F G H I J K L M N O P Q R S T U V W X Y Z