Song name
# A B C D E F G H I J K L M N O P Q R S T U V W X Y Z

Stereolab - Doubt chords

Highlighted       Show chord diagrams
STEREOLAB - DOUBT

CHORDS:

   G   Dmaj7  A
e--7----7-----5---|
B--8----9-----5---|
G--7----8-----6---|
D--9----9-----7---|
A--10---7-----7---|
E--x----x-----5---|


guitar riff in background

e------------------------------------------------|
B------------------------------------------------|
G------------------------------------------------|
D--9---9-9------9----9-9-----7--7-7-----7---7-7--|
A---10------10----10-----10---9------9----9------|
E------------------------------------------------|

G         Dmaj7
Doubt will kill you

G            Dmaj7
you've passed away

G          Dmaj7
the various controls

G    Dmaj7
Resig--nation


G     Dmaj7


A       G
Unmis--stakable


G     Dmaj7


A          G
Appeal of the marvelous


G     Dmaj7


G         Dmaj7
Doubt will kill you

G            Dmaj7
you've passed away

G          Dmaj7
the various controls

G    Dmaj7
Resig--nation


G     Dmaj7


A      G
Unmis--takable


G     Dmaj7


A         G
Appeal of the marvelous


G
Is it enough to show

Dmaj7
How the nightmare works

G
so everyone will wake up

Dmaj7
Is it enough


G     Dmaj7 (repeat many times)

G


NOTE: This tab was rescued from Planиte Magique fan website.

Send corrections or contributions to:
soloriohead@hotmail.com
Tap to rate this tab
# A B C D E F G H I J K L M N O P Q R S T U V W X Y Z