Song name
# A B C D E F G H I J K L M N O P Q R S T U V W X Y Z

Stereomud - Steppin Away tab

Artist: Stereomud
Album: Perfect Self
Song: Steppin' Away
Tuning: Drop-C



Intro:  (gradually release palm mute)         (x2)
D|-------------------------------------------|
A|-------------------------------------------|
F|-------------------------------------------|
C|--12-10---12-10---12-10---12-10---12-10----|
G|-------12------12------12------12------12--|
C|-------------------------------------------|
Pm ..........................................


D|--------------------------------------------------|
A|--------------------------------------------------|
F|--------------------------------------------------|
C|--12-10-0--12-10-0--12-10-0--12-10-0--12-10-(12b)-|
G|--------------------------------------------------|
C|--------------------------------------------------|
Pm  .......  .....    ....     ...      ..

Verse:
D|------------------------------------------------------------|
A|------------------------------------------------------------|
F|-------------14-------------15-------------17------------14-|
C|-------------x--------------x--------------x-------------x--|
G|--0-12-10-0--12--0-12-10-0--13--0-12-10-0--15--0-12-10-0-12-|
C|--0-12-10-0------0-12-10-0------0-12-10-0------0-12-10-0----|
Pm  .........      .........      .........      .........

D|------------------|
A|------------------|
F|-12-12/14-x-x--14-|
C|-x---x/-x-x-x--x--|
G|-10-10/12-x-x--12-|
C|------------------|

  
D|------------------------------------------------------------|
A|------------------------------------------------------------|
F|-------------14-------------15-------------17------------14-|
C|-------------x--------------x--------------x-------------x--|
G|--0-12-10-0--12--0-12-10-0--13--0-12-10-0--15--0-12-10-0-12-|
C|--0-12-10-0------0-12-10-0------0-12-10-0------0-12-10-0----|
Pm  .........      .........      .........      .........

D|-----------------|
A|-----------------|
F|-12-12-x-x-12/14-|
C|-x--x--x-x--x/-x-|
G|-10-10-x-x-10/12-|
C|-----------------|


D|------------------------------------------------------------|
A|------------------------------------------------------------|
F|-------------14-------------15-------------17------------14-|
C|-------------x--------------x--------------x-------------x--|
G|--0-12-10-0--12--0-12-10-0--13--0-12-10-0--15--0-12-10-0-12-|
C|--0-12-10-0------0-12-10-0------0-12-10-0------0-12-10-0----|
Pm  .........      .........      .........      .........

D|------------------|
A|------------------|
F|-12-12/14-x-x--14-|
C|-x---x/-x-x-x--x--|
G|-10-10/12-x-x--12-|
C|------------------|

  
D|------------------------------------------------------------|
A|------------------------------------------------------------|
F|-------------14-------------15-------------17------------14-|
C|-------------x--------------x--------------x-------------x--|
G|--0-12-10-0--12--0-12-10-0--13--0-12-10-0--15--0-12-10-0-12-|
C|--0-12-10-0------0-12-10-0------0-12-10-0------0-12-10-0----|
Pm  .........      .........      .........      .........

D|-----------------|
A|-----------------|
F|-12-12-x-x-12/14-|
C|-x--x--x-x--x/-x-|
G|-10-10-x-x-10/12-|
C|-----------------|


D|------------------------------------------------------------|
A|------------------------------------------------------------|
F|-------------14-------------15-------------17------------14-|
C|-------------x--------------x--------------x-------------x--|
G|--0-12-10-0--12--0-12-10-0--13--0-12-10-0--15--0-12-10-0-12-|
C|--0-12-10-0------0-12-10-0------0-12-10-0------0-12-10-0----|
Pm  .........      .........      .........      .........

D|------------------|
A|------------------|
F|-x-x--12--x-x--12-|
C|-x-x---x--x-x---x-|
G|-x-x--10--x-x--10-|
C|------------------|


D|--------------------------------------------------------------------------|
A|--------------------------------------------------------------------------|
F|-------------14-------------15-------------17-------------14--------------|
C|-------------x--------------x--------------x--------------x---------------|
G|--0-12-10-0--12--0-12-10-0--13--0-12-10-0--15--0-12-10-0--12--0-12-10-0---|
C|--0-12-10-0------0-12-10-0------0-12-10-0------0-12-10-0------0-12-10-0---|
Pm  .........      .........      .........      .........      .........


Chorus:
D|----------------------------------------------|
A|----------------------------------------------|
F|--10-------------------------------5/7--------|   (3x)
C|--x--10--8--8-88--555-5-55--0-3----5/7--------|
G|--8--10--8--8-88--555-5-55--0-3----3/5--------|
C|-----10--8--8-88--555-5-55--0-3-00-----0-000--|


D|-----------------------|
A|-----------------------|
F|--10-------------------|   
C|--x--10--8--8-88--5~---|
G|--8--10--8--8-88--5~---|
C|-----10--8--8-88--5~---|


(Clean)
D|----------------|
A|----------------|
F|----------------|
C|-10--8--10--12--|
G|--8--8---8---8--|
C|--8--8---8---8--|

Verse:
D|------------------------------------------------------------|
A|------------------------------------------------------------|
F|-------------14-------------15-------------17------------14-|
C|-------------x--------------x--------------x-------------x--|
G|--0-12-10-0--12--0-12-10-0--13--0-12-10-0--15--0-12-10-0-12-|
C|--0-12-10-0------0-12-10-0------0-12-10-0------0-12-10-0----|
Pm  .........      .........      .........      .........

D|------------------|
A|------------------|
F|-12-12/14-x-x--14-|
C|-x---x/-x-x-x--x--|
G|-10-10/12-x-x--12-|
C|------------------|

  
D|------------------------------------------------------------|
A|------------------------------------------------------------|
F|-------------14-------------15-------------17------------14-|
C|-------------x--------------x--------------x-------------x--|
G|--0-12-10-0--12--0-12-10-0--13--0-12-10-0--15--0-12-10-0-12-|
C|--0-12-10-0------0-12-10-0------0-12-10-0------0-12-10-0----|
Pm  .........      .........      .........      .........

D|-----------------|
A|-----------------|
F|-12-12-x-x-12/14-|
C|-x--x--x-x--x/-x-|
G|-10-10-x-x-10/12-|
C|-----------------|


D|------------------------------------------------------------|
A|------------------------------------------------------------|
F|-------------14-------------15-------------17------------14-|
C|-------------x--------------x--------------x-------------x--|
G|--0-12-10-0--12--0-12-10-0--13--0-12-10-0--15--0-12-10-0-12-|
C|--0-12-10-0------0-12-10-0------0-12-10-0------0-12-10-0----|
Pm  .........      .........      .........      .........

D|------------------|
A|------------------|
F|-12-12/14-x-x--14-|
C|-x---x/-x-x-x--x--|
G|-10-10/12-x-x--12-|
C|------------------|

  
D|------------------------------------------------------------|
A|------------------------------------------------------------|
F|-------------14-------------15-------------17------------14-|
C|-------------x--------------x--------------x-------------x--|
G|--0-12-10-0--12--0-12-10-0--13--0-12-10-0--15--0-12-10-0-12-|
C|--0-12-10-0------0-12-10-0------0-12-10-0------0-12-10-0----|
Pm  .........      .........      .........      .........

D|-----------------|
A|-----------------|
F|-12-12-x-x-12/14-|
C|-x--x--x-x--x/-x-|
G|-10-10-x-x-10/12-|
C|-----------------|


D|------------------------------------------------------------|
A|------------------------------------------------------------|
F|-------------14-------------15-------------17------------14-|
C|-------------x--------------x--------------x-------------x--|
G|--0-12-10-0--12--0-12-10-0--13--0-12-10-0--15--0-12-10-0-12-|
C|--0-12-10-0------0-12-10-0------0-12-10-0------0-12-10-0----|
Pm  .........      .........      .........      .........

D|------------------|
A|------------------|
F|-x-x--12--x-x--12-|
C|-x-x---x--x-x---x-|
G|-x-x--10--x-x--10-|
C|------------------|


D|--------------------------------------------------------------------------|
A|--------------------------------------------------------------------------|
F|-------------14-------------15-------------17-------------14--------------|
C|-------------x--------------x--------------x--------------x---------------|
G|--0-12-10-0--12--0-12-10-0--13--0-12-10-0--15--0-12-10-0--12--0-12-10-0---|
C|--0-12-10-0------0-12-10-0------0-12-10-0------0-12-10-0------0-12-10-0---|
Pm  .........      .........      .........      .........      .........


Chorus:
D|----------------------------------------------|
A|----------------------------------------------|
F|--10-------------------------------5/7--------|   (3x)
C|--x--10--8--8-88--555-5-55--0-3----5/7--------|
G|--8--10--8--8-88--555-5-55--0-3----3/5--------|
C|-----10--8--8-88--555-5-55--0-3-00-----0-000--|


D|-----------------------------|
A|-----------------------------|
F|--10-------------------------|
C|--x--10--88888888--55555555--|
G|--8--10--88888888--55555555--|
C|-----10--88888888--55555555--|

Bridge:  (Guitar 1)
D|----------------------|
A|----------------------|
F|----------------------|
C|--0-3---0-3---0-3-0---| (x3)
G|--0-3---0-3---0-3-0---|
C|--0-3---0-3---0-3-0---|

D|----------------------|
A|----------------------|
F|----------------------|
C|-0-3--0-3-0--3/5------|
G|-0-3--0-3-0--3/5------|
C|-0-3--0-3-0--3/5------|

Bridge:   (Guitar 2)
D|--------------------------|
A|----11---11\---10--10/----|  (x4)
F|-16---16\----14--14/------|
C|--------------------------|
G|--------------------------|
C|--------------------------|

Interlude:
D|----------------|
A|----------------|
F|----------------|
C|-10--8--10--12--|  (x2)
G|--8--8---8---8--|
C|--8--8---8---8--|

D|-------------------|
A|-------------------|
F|-------------------|
C|-------------------|
G|-------------------|
C|--0-3-00--000-000--|

Chorus:
D|----------------------------------------------|
A|----------------------------------------------|
F|--10-------------------------------5/7--------|   (3x)
C|--x--10--8--8-88--555-5-55--0-3----5/7--------|
G|--8--10--8--8-88--555-5-55--0-3----3/5--------|
C|-----10--8--8-88--555-5-55--0-3-00-----0-000--|


D|-----------------------------|
A|-----------------------------|
F|--10-------------------------|
C|--x--10--88888888--55555555--|
G|--8--10--88888888--55555555--|
C|-----10--88888888--55555555--|


Solo:   (guitar 1)
D|------------------------------------------------------------------|
A|--10v-10-8----------10v-10-8--------------------------------------| 
F|-----------9v-10\7-----------9v-10\5--5h7-5\3-2v--2/7V--9/10\9--7~| 
C|------------------------------------------------------------------|
G|------------------------------------------------------------------| 
C|------------------------------------------------------------------| 

D|-----------|
A|-----------|
F|--7\2v-----|
C|-------2b--|
G|-----------|
C|-----------|


Solo:   (guitar 2)
D|----------------------------------------------|
A|----------------------------------------------|
F|--10-------------------------------5/7--------|   (3x)
C|--x--10--8--8-88--555-5-55--0-3----5/7--------|
G|--8--10--8--8-88--555-5-55--0-3----3/5--------|
C|-----10--8--8-88--555-5-55--0-3-00-----0-000--|


D|-----------------------|
A|-----------------------|
F|--10-------------------|   
C|--x--10--8--8-88--5~---|
G|--8--10--8--8-88--5~---|
C|-----10--8--8-88--5~---|


Outro   (Clean)
D|----------------|
A|----------------|
F|----------------|
C|-10--8--10---0~-|
G|--8--8---8---0~-|
C|--8--8---8---0~-|  END
Tap to rate this tab
# A B C D E F G H I J K L M N O P Q R S T U V W X Y Z