Song name
# A B C D E F G H I J K L M N O P Q R S T U V W X Y Z

Stereomud - Leave Back Up tab

-------------------------------------------------------------------------------
                             Leave - Stereomud
-------------------------------------------------------------------------------
Tabbed by: Lars van Sante
E-mail: info@larsvansante.nl

Tuning: c

So... This is my first tab, I dont understand how to write it well,
just leave me some feedback!
I will not write the whole tab, I will write every section.
You'll probably want to repeat a part a few times before going to the next one.
I will leave it to your own musicality to implement it right.


part 1
c|--------------------------------------------------------------------------|
G|--------------------------------------------------------------------------|
D|--------------------------------------------------------------------------|
A|5-7---5-7---5-7---5-7---7-10-10-10-10-12-12-12----------------------------|
F|5-7---5-7---5-7---5-7---7-10-10-10-10-12-12-12----------------------------|
C|3-5-xx3-5-xx3-5-xx3-5-xx5-8--8--8--8--10-10-10----------------------------|


part 1 second variant
c|--------------------------------------------------------------------------|
G|--------------------------------------------------------------------------|
D|--------------------------------------------------------------------------|
A|5-7---5-7---5-7---5-7---7-10-10-10-10-5-5-5-------------------------------|
F|5-7---5-7---5-7---5-7---7-10-10-10-10-5-5-5-------------------------------|
C|3-5-xx3-5-xx3-5-xx3-5---5-8--8--8--8--3-3-3-------------------------------|

part 2
c|----------------10-10-10-10-----------------------------------------------|
G|10------h11---------------------------------------------------------------|
D|--------------------------------------------------------------------------|
A|--------------------------------------------------------------------------|
F|--------------------------------------------------------------------------|
C|--------------------------------------------------------------------------|

part 3 (Not sure of this)
c|--------------------------------------------------------------------------|
G|8-8-8-8-8-8-8-8-5-5-5-5-8-8-8-8-8-8-8-8-8-8-3-3-3-3-5-5-5-5---------------|
D|--------------------------------------------------------------------------|
A|--------------------------------------------------------------------------|
F|--------------------------------------------------------------------------|
C|--------------------------------------------------------------------------|

part 4
c|--------------------------------------------------------------------------|
G|--------------------------------------------------------------------------|
D|--------------------------------------------------------------------------|
A|7-7-7-7-7-7-7-7-7-8-8-8-8-8-8-8-8-10-10-10-10-10-10-10-10-----------------|
F|7-7-7-7-7-7-7-7-7-8-8-8-8-8-8-8-8-10-10-10-10-10-10-10-10-----------------|
C|5-5-5-5-5-5-5-5-5-6-6-6-6-6-6-6-6-8--8--8--8--8--8--8--8------------------|

Then comes part 1-3
then part 1

part 5
c|--------------------------------------------------------------------------|
G|--------------------------------------------------------------------------|
D|--------------------------------------------------------------------------|
A| -------------------------------------------------------------------------|
F|--------------------------------------------------------------------------|
C|3-5-5-5-3-5-5-5-3-5-5-5-3-5-5-5-------------------------------------------|

other guitar at part 5
c|3-5-3-5-6-5-3-5-5-6-6-6-6-8-8-8-8-----------------------------------------|
G|--------------------------------------------------------------------------|
D|--------------------------------------------------------------------------|
A| -------------------------------------------------------------------------|
F|--------------------------------------------------------------------------|
C|--------------------------------------------------------------------------|

Ending variant of part 5
c|3-5-3-5-6-5-3-5---6-6-----------------------------------------------------|
G|--------------------------------------------------------------------------|
D|--------------------------------------------------------------------------|
A| -------------------------------------------------------------------------|
F|--------------------------------------------------------------------------|
C|--------------------------------------------------------------------------|

Then part 1


part 6
c|--------------------------------------------------------------------------|
G|--------------------------------------------------------------------------|
D|--------------------------------------------------------------------------|
A|5-7-8-7-5-7-8-7-7-8-8-8-8-10-10-10-10-------------------------------------|
F|5-7-8-7-5-7-8-7-7-8-8-8-8-10-10-10-10-------------------------------------|
C|3-5-6-5-3-5-6-5-5-6-6-6-6-8--8--8--8--------------------------------------|


part 6 second variant
c|--------------------------------------------------------------------------|
G|--------------------------------------------------------------------------|
D|--------------------------------------------------------------------------|
A|5-7-8-7-5-7-8-7-7-8-8-8-8-5-5-5-5-----------------------------------------|
F|5-7-8-7-5-7-8-7-7-8-8-8-8-5-5-5-5-----------------------------------------|
C|3-5-6-5-3-5-6-5-5-6-6-6-6-3-3-3-3-----------------------------------------|

the end
c|--------------------------------------------------------------------------|
G|--------------------------------------------------------------------------|
D|--------------------------------------------------------------------------|
A|7-7-----------------------------------------------------------------------|
F|7-7-----------------------------------------------------------------------|
C|5-5-----------------------------------------------------------------------|

************************************

| /   slide up
| \   slide down
| h   hammer-on
| p   pull-off
| ~   vibrato
| +   harmonic
| x   Mute note
| b   Bend
| pb  Pre-bend
| br  Bend release
| pbr Pre-bend release
| brb Bend release bend

************************************
Tap to rate this tab
 
# A B C D E F G H I J K L M N O P Q R S T U V W X Y Z