Song name
# A B C D E F G H I J K L M N O P Q R S T U V W X Y Z

Stereomud - Control Freak tab

Stereomud: Control Freak

Transcribed by: mysticguitar77

YouTube Channel: MysticGuitar77

Date last modified: February 28, 2014

Tuning: Drop C (C,G,C,F,A,D)

Riff 1
D|---------------------------|
A|---------------------------|
F|---------------------------|
C|-------------------x-x-x-x-| x3
G|-----0-------------x-x-x-x-|
C|-2h4---4-2-0-2-5-4-x-x-x-x-|

D|---------------------------|
A|---------------------------|
F|---------------------------|
C|-------------------5-5-5-5-|
G|-----0-------------5-5-5-5-|
C|-2h4---4-2-0-2-5-4-5-5-5-5-|

Riff 2   "Something I need you won't let me have..."
D|------------------------------------|
A|------------------------------------|
F|------------------------------------|
C|-4~--------x-x--x-4~--------x-x-x-x-|
G|-4~--------x-x--x-4~--------x-x-x-x-|
C|-4~--------x-x--x-4~--------x-x-x-x-|

Riff 3   "You don't listen, you don't understand..."
D|----------------------------------|
A|----------------------------------|
F|----------------------------------|
C|----------------------------------|
G|-4*----------4*----------4*-------|
C|---4*4*4*4*4*--4*4*4*4*4*--4*4*4*-|

Play Riff 3 x3   "In your eyes you know..."

Riff 4   "Everything, but you don't..." (just the chords)
D|---------------------|
A|---------------------|
F|---------------------|
C|-4----7----0----2----|
G|-4----7----0----2----|
C|-4----7----0----2----|

Play Riff 4 x2   "How does it feel to be right all the time..."
Play Riff 1 x1
Play Riff 2 x1   "You never let me finish what I'm saying..."
Play Riff 3 x3   "You don't listen, you don't understand..."
Play Riff 4 x2   "How does it feel now you can't control me..."

Riff 5
D|-------------------------------------------|
A|-------------------------------------------|
F|-11b-11-11-11-11-11b-11-11-11-11-11--11-11-|
C|-x---x--x--x--x--x---x--x--x--x--x---x--x--|
G|-9b--9--9--9--9--9b--9--9--9--9--9---9--9--|
C|-------------------------------------------|

D|----------------------------------------|
A|----------------------------------------|
F|-11b-11-11-11-11-11b-11-11-11-11-7--7-7-|
C|-x---x--x--x--x--x---x--x--x--x--x--x-x-|
G|-9b--9--9--9--9--9b--9--9--9--9--5--5-5-|
C|----------------------------------------|

Play Riff 5 x6   "No one likes a control freak..."
Play Riff 3 x3   "You don't listen, you don't understand..."
Play Riff 4 x4   "You think you know everything, but you don't..."

Ending    "Control freak!!"
D|---------------------------------------------|
A|---------------------------------------------|
F|---------------------------------------------|
C|-------------------x-x-x-x-------------------|
G|-----0-------------x-x-x-x-----0-------------|
C|-2h4---4-2-0-2-5-4-x-x-x-x-2h4---4-2-0-2-5-4-|

D|-----------------------------------------------|
A|-----------------------------------------------|
F|-----------------------------------------------|
C|-------------------x-x-x-x-------------------4-|
G|-----0-------------x-x-x-x-----0-------------4-|
C|-2h4---4-2-0-2-5-4-x-x-x-x-2h4---4-2-0-2-5-4-4-|

Enjoy!!


Tap to rate this tab
 
# A B C D E F G H I J K L M N O P Q R S T U V W X Y Z