Song name
# A B C D E F G H I J K L M N O P Q R S T U V W X Y Z

Stereophonics - Piano For A Stripper tab

This is a brilliant heave phonics song and can be found on CD3 of Have a nica day single

VERSE:

This Is Repeated Throughout The Verses

e---------------------------------------------------------------------------|
B---------------------------------------------------------------------------|
G---9-9-7-9-7-9-7-9---------------------------------------------------------|
D---9-9-7-9-7-9-7-9----7---7---5-5-5-5-5------------------------------------|
A---7-7-7-7-7-7-7-7----7---7---5-5-5-5-5------------------------------------|
E----------------------5---5---3-0-3-0-3------------------------------------|

PRE-CHORUS:

e---------------------------------------------------------------------------|
B---------------------------------------------------------------------------|
G---10--10-10---9--7--9-----------------------------------------------------|
D---10--10-10---9--7--9--5-5-2-2--------------------------------------------|
A---10--10-10---9--7--9--5-5-2-2--------------------------------------------|
E---8---8--8----7--5--7--3-3-0-0--------------------------------------------|

CHORUS:

e--0-0-0--0-0-0-------------------------------------------------------------|
B--0-0-0--1-1-1-------------------------------------------------------------|
G--0-0-0--0-0-0--2-2--------------------------------------------------------|
D--2-2-2--2-2-2--1-1--------------------------------------------------------|
A--2-2-2--3-3-3--2-2--------------------------------------------------------|
E--0-0-0--0-0-0--0-0--------------------------------------------------------|
Tap to rate this tab
# A B C D E F G H I J K L M N O P Q R S T U V W X Y Z