Song name
# A B C D E F G H I J K L M N O P Q R S T U V W X Y Z

Stereophonics - I Could Lose Ya tab

I Could lose Ya-Stereophonics

Written By Kelly Jones/Richard Jones/Javier Weyler.

Words By Kelly Jones

Intro

Guitar 1 + Guitar 2

e----------------------------------|
B----------------------------------|
G----------------------------------|
D-5/7-7-7-5/7-7-7-5/7-7-7-5/7-7-7--|
A-3/5-5-5-3/5-5-5-3/5-5-5-3/5-5-5--|
E----------------------------------| x1

Verse Part 1

Guitar 1

e----------------------------------------------|
B-13~~~~~~~~~~~~~~~~~~~-12~~~~~~~~~~~~~~~~~~~--|
G----------------------------------------------|
D----------------------------------------------|
A----------------------------------------------|
E----------------------------------------------| x4

Guitar 2

The Bass Plays One Note And then The Guitar mirrors it an Octave Higher.

e-----------------------------------------------|
B-----------------------------------------------|
G-----------------------------------------------|
D-10-10--10-10--10-10--10-10--9-9--9-9--9-9--9-9| This Runs Throughout Verse
A-----------------------------------------------|
E-----------------------------------------------|  

Verse Part 2

e-------------------------------------------------|
B-10-10--10-10--10-10--10-10--7-7--7-7--7-7--7-7--|
G-10-10--10-10--10-10--10-10--7-7--7-7--7-7--7-7--|
D-12-12--12-12--12-12--12-12--9-9--9-9--9-9--9-9--|
A-------------------------------------------------|
E-------------------------------------------------| x2

The Bass Plays One Note And then The Guitar mirrors it an Octave Higher.

e-----------------------------------------------|
B-----------------------------------------------|
G-----------------------------------------------|
D-10-10--10-10--10-10--10-10--9-9--9-9--9-9--9-9| This Runs Throughout Verse
A-----------------------------------------------|
E-----------------------------------------------|  

Chorus

Guitar 1

e--------------------------------------------------------------------|
B--------------------------------------------------------------------|
G-7-7-7-7-7--5-5-5-5-5--5-5-5-5-5--5-/7-7-7-5/7-7-7-5/7-7-7-5/7-7-7--|
D-7-7-7-7-7--5-5-5-5-5--5-5-5-5-5--5-/7-7-7-5/7-7-7-5/7-7-7-5/7-7-7--|
A-5-5-5-5-5--3-3-3-3-3--2-2-2-2-2--3-/5-5-5-3/5-5-5-3/5-5-5-3/5-5-5--|
E--------------------------------------------------------------------|

Guitar 2

e-10----10----10----10----10----10----10----10----10----10----10-----10---|
B----13----13----13----13----13----13----13----13----13----13----13--13b--|
G-------------------------------------------------------------------------|
D-------------------------------------------------------------------------|
A-------------------------------------------------------------------------|
E-------------------------------------------------------------------------|

Verse 2 Part 1

Guitar 1

e----------------------------------------------|
B-13~~~~~~~~~~~~~~~~~~~-12~~~~~~~~~~~~~~~~~~~--|
G----------------------------------------------|
D----------------------------------------------|
A----------------------------------------------|
E----------------------------------------------| x4

Guitar 2

The Bass Plays One Note And then The Guitar mirrors it an Octave Higher.

e-----------------------------------------------|
B-----------------------------------------------|
G-----------------------------------------------|
D-10-10--10-10--10-10--10-10--9-9--9-9--9-9--9-9| This Runs Throughout Verse
A-----------------------------------------------|
E-----------------------------------------------|  

Verse 2 Part 2

e-------------------------------------------------|
B-10-10--10-10--10-10--10-10--7-7--7-7--7-7--7-7--|
G-10-10--10-10--10-10--10-10--7-7--7-7--7-7--7-7--|
D-12-12--12-12--12-12--12-12--9-9--9-9--9-9--9-9--|
A-------------------------------------------------|
E-------------------------------------------------| x2

The Bass Plays One Note And then The Guitar mirrors it an Octave Higher.

e-----------------------------------------------|
B-----------------------------------------------|
G-----------------------------------------------|
D-10-10--10-10--10-10--10-10--9-9--9-9--9-9--9-9| This Runs Throughout Verse
A-----------------------------------------------|
E-----------------------------------------------|  

Chorus

Guitar 1

e--------------------------------------------------------------------|
B--------------------------------------------------------------------|
G-7-7-7-7-7--5-5-5-5-5--5-5-5-5-5--5-/7-7-7-5/7-7-7-5/7-7-7-5/7-7-7--|
D-7-7-7-7-7--5-5-5-5-5--5-5-5-5-5--5-/7-7-7-5/7-7-7-5/7-7-7-5/7-7-7--|
A-5-5-5-5-5--3-3-3-3-3--2-2-2-2-2--3-/5-5-5-3/5-5-5-3/5-5-5-3/5-5-5--|
E--------------------------------------------------------------------|

Guitar 2

e-10----10----10----10----10----10----10----10----10----10----10-----10---|
B----13----13----13----13----13----13----13----13----13----13----13--13b--|
G-------------------------------------------------------------------------|
D-------------------------------------------------------------------------|
A-------------------------------------------------------------------------|
E-------------------------------------------------------------------------|

Bridge/Solo

e-10-------10--10--------10-------13----12----10--10bbbbb--|
B----10-----------10-----------10----10----10-----10bbbbb--|
G-------10-----------10------------------------------------|
D----------------------------------------------------------|
A----------------------------------------------------------|
E----------------------------------------------------------| x1

Final Chorus

e--------------------------------------------------------------------|
B--------------------------------------------------------------------|
G-7-7-7-7-7--5-5-5-5-5--5-5-5-5-5--5-/7-7-7-5/7-7-7-5/7-7-7-5/7-7-7--|
D-7-7-7-7-7--5-5-5-5-5--5-5-5-5-5--5-/7-7-7-5/7-7-7-5/7-7-7-5/7-7-7--|
A-5-5-5-5-5--3-3-3-3-3--2-2-2-2-2--3-/5-5-5-3/5-5-5-3/5-5-5-3/5-5-5--|
E--------------------------------------------------------------------|

Guitar 2

e-10----10----10----10----10----10----10----10----10----10----10-----10---|
B----13----13----13----13----13----13----13----13----13----13----13--13b--|
G-------------------------------------------------------------------------|
D-------------------------------------------------------------------------|
A-------------------------------------------------------------------------|
E-------------------------------------------------------------------------|

Then The Drum Beat Changes

Guitar 1

e--------------------------------------------------------------------|
B--------------------------------------------------------------------|
G-7-7-7-7-7--5-5-5-5-5--5-5-5-5-5--5-/7-7-7-5/7-7-7-5/7-7-7-5/7-7-7--|
D-7-7-7-7-7--5-5-5-5-5--5-5-5-5-5--5-/7-7-7-5/7-7-7-5/7-7-7-5/7-7-7--|
A-5-5-5-5-5--3-3-3-3-3--2-2-2-2-2--3-/5-5-5-3/5-5-5-3/5-5-5-3/5-5-5--|
E--------------------------------------------------------------------|

Guitar 2

e------10----------10-----------13----12---10--10bbbbbbbbb--|
B----------------------------10----10----10----10bbbbbbbbb--|
G-12b-----12r--12b----12r-----------------------------------|
D-----------------------------------------------------------|
A-----------------------------------------------------------|
E-----------------------------------------------------------|
Tap to rate this tab
# A B C D E F G H I J K L M N O P Q R S T U V W X Y Z