Song name
# A B C D E F G H I J K L M N O P Q R S T U V W X Y Z

Stereophonics - Surprise tab

Help us improve GuitareTab! Take a short survey!
Right this is my first tab so if its bollocks let me know mr_wolfy@hotmail.com!!
Crackin record this, a hidden track on the jeep album. I read a few tabs for it
didn't seem quite right, see what you think:
lots of distortion, standard tuning:

e-------------------------------------------------------------------
B-------------------------------------------------------------------
G-------------------------------------------------------------------
D---X-X-6/7-7---6------4-----------------4-4-4/6-6-6-6/7-7-7--------
A---X-X-6/7-7---6------4-----------------4-4-4/6-6-6-6/7-7-7--------
E---X-X-4/5-5p0-4p0-0--2p0-0-0-0-0-0-0h2-2-2-2/4-4-4-4/5-5-5--------

e-------------------------------------------------------------------
B-------------------------------------------------------------------
G-------------------------------------------------------------------
D---X-X-6/7-7---6------4-----------------4-4-4/6-6-6-6/7-7-7-----2--
A---X-X-6/7-7---6------4-----------------4-4-4/6-6-6-6/7-7-7-----2--
E---X-X-4/5-5p0-4p0-0--2p0-0-0-0-0-0-0h2-2-2-2/4-4-4-4/5-5-5-----0--

This riff is played at the intro and at the end of each chorus. email me with
your comments, chords seem wierd in the verses if any1's figured them out let me
know. CHEERS!
Related for Surprise tab