Guitaretab - guitar tabs
Song name
# A B C D E F G H I J K L M N O P Q R S T U V W X Y Z

Stereophonics - Superman tab

Superman-Stereophonics

Band-Kelly Jones-Voacls, Guitar
     Richard Jones-Bass
     Javier Weyler-Drums

Intro

(Clean)

Gtr 1

e---8---7-----5--|
B-5---5---3/5----|
G----------------|
D----------------|
A----------------|
E----------------| x2

Gtr 2 Comes in at certain times and plays:

Gtr 2

(Wah-Wah)

e-----------------------------------------|
B-----------------------------------------|
G-----------------------------------------|
D-----------------------------------------|
A-------------------------3---------------|
E-3-5------------------------5-------8-7--|

Chorus

Gtr 1 (Dist)

e--------------------------------------------|
B--------------------------------------------|
G--------------------------------------------|
D--------------------------------------------|
A-7-7-7-7-7-7-7-7-7-7--10-10-10-10-10-10-10--|
E-5-5-5-5-5-5-5-5-5-5--8--8--8--8--8--8--8---|


e--------------------------------------------|
B--------------------------------------------|
G--------------------------------------------|
D-10-10-10-10-10-10-10--7-7-7-7-7-7-7-7-7-7--|
A-8--8--8--8--8--8--8---5-5-5-5-5-5-5-5-5-5--|
E--------------------------------------------| x2

Gtr 2 Plays:

e---8---7-----5--|
B-5---5---3/5----|
G----------------|
D----------------|
A----------------|
E----------------| x2

Verse

Gtr 1 (Wah-Wah)

Riff A

e-----------------------------------|
B-----------------------------------|
G-----------------------------------|
D-----------------------------------|
A-----------------------------------|
E-3-5--3-5--3-5--3-5--3-5--3-5--3-5-| As many Times as Neccesary

Riff B

e------------------|
B------------------|
G------------------|
D------------------|
A-3---3---3---3----|
E---5---5---5---5--|

Riff C

e---------------------|
B---------------------|
G---------------------|
D---------------------|
A-3-5--3-5--3-5--3-5--|
E---------------------|

Chorus

As Chorus 1

Verse 2

As Verse 1

Chorus 2

As Chorus 1

Guitar Solo 1

Gtr 1 w/ Verse Riff A

Gtr 2 w/ Wah-Wah

e----------------------------------------------------------|
B-10bbb-10bb-10--------------------------------------------|
G---------------5-7bb-7bb-7bb-7bb-7bb-7bb-7bb--7bp5---5-5--|
D---------------------------------------------------7------|
A----------------------------------------------------------|
E----------------------------------------------------------|
[ Tab from: http://www.guitaretab.com/s/stereophonics/135257.html ]
|-tremolo Picked------------------------------|
e-----------------------------------------------|
B-8b-8b-8b-8b-8b-8b-8b-8b-8b-8b-8b-8b-8b-8b-8b--|
G-----------------------------------------------|
D-----------------------------------------------|
A-----------------------------------------------|
E-----------------------------------------------|

e------------------------------------------|
B-13bb-13bb-13-10-15--15bb-15bb-15bb-15bb--|
G------------------------------------------|
D------------------------------------------|
A------------------------------------------|
E------------------------------------------|

Chorus 3

As Chorus 1

Bridge

The 'Meeting Someone Like You.....' Bit

Gtr 1 + Gtr 2 (Dist)

C5          B5           Bb5           A5

C5          B5           Bb5

Final Verse

e----------------------------|
B----------------------------|
G----------------------------|
D----------------------------|
A-5--7--5--7--5--7----10--9--|
E-3--5--3--5--3--5----8---7--| As Many times As Neccesary

Guitar Solo 2

e---------------------------------------------------------------|
B-20bb-20bb-20bb-20bb-20bb-22-----------------------------------|
G-----------------------------7bb-7bb-7bb-7bb-7bb-7bbp5---5b-7--|
D-------------------------------------------------------7-------|
A---------------------------------------------------------------|
E---------------------------------------------------------------|

e----------------------------------------------------------------|
B-----------8bb-8bb-8bb-8bb-8bbp5-8bb-8bb-8p5p7-8bb-8bb-8bb-8bb--|
G-5b-------------------------------------------------------------|
D----7-5-7-------------------------------------------------------|
A----------------------------------------------------------------|
E----------------------------------------------------------------|

e-------------------5--------------|
B-8bb-8-5-8bb---------8-5----------|
G-------------7bb----------5b------|
D-----------------------------7-5--|
A----------------------------------|
E----------------------------------|

e---------------------------------------|
B-7--5b---------------------------------|
G-7--5b-----------------------------5b--|
D--------7--5-7-7-x-5-7-7-x-5-7---x-----|
A-------------------------------x-------|
E---------------------------------------|

e----------------------------|
B----------------------7-----|
G----------------------7--5--|
D-5-7-7-x-5-7-7-x-5-7--------|
A----------------------------|
E----------------------------|

e-----------------------------------------3---------|
B-----------------------------------------3---------|
G-----------------------------------------0---------|
D-----------------------------------------0---------|
A-----------------------------------------x---------|
E-3-5--3-5--3-5--3-5--3-5--3-5--3-5--3-5--3--3-5-5--|
Related for Superman tab
Advertisement will be closed in 10 seconds