Song name
# A B C D E F G H I J K L M N O P Q R S T U V W X Y Z

Stereophonics - Devil tab

Tabbed by: Chris
Email: cgsolman@msn.com

Tuning: Standard

First tab so go easy guys. Feedback welcomed, it sounds pretty decent to me and it's 
power chords so it's easy. This is only
the 1 guitar by the way
Right, here we go

Intro + verse (on piano)

e|---------------------------------------------------------------------------|
B|---------------------------------------------------------------------------|
G|-9--11--9------------7--11--7----------------------------------------------|
D|---------------------------------------------------------------------------|
A|----------9---x4---------------9---x4--------------------------------------|
E|---------------------------------------------------------------------------|

(As many times as necessary)


Just after "Turn water into wine"

e|-------------------------------------------------------------------------|
B|-------------------------------------------------------------------------|
G|-------------------------------------------------------------------------|
D|--4-4-2--x4------4-4-0--x4-----4-4-2--x4---------------------------------|
A|-------------------------------------------------------------------------|
E|-------------------------------------------------------------------------|

Chorus

e|-------------------------------------------------------------------------|
B|-------------------------------------------------------------------------|
G|-----------------------------------9999999999999999----------------------|
D|9--99999999999999-7777777777777777-7777777777777777-7777777777777777-----|
A|9--99999999999999-7777777777777777-7777777777777777-7777777777777777-----|
E|7--77777777777777-5555555555555555------------------5555555555555555-----| X2

Verse (on piano)

e|---------------------------------------------------------------------------|
B|---------------------------------------------------------------------------|
G|-9--11--9------------7--11--7----------------------------------------------|
D|---------------------------------------------------------------------------|
A|----------9---x4---------------9---x4--------------------------------------|
E|---------------------------------------------------------------------------|

(As many times as necessary)


Just after "I need another line"

e|-------------------------------------------------------------------------|
B|-------------------------------------------------------------------------|
G|-------------------------------------------------------------------------|
D|--4-4-2--x4------4-4-0--x4-----4-4-2--x4---------------------------------|
A|-------------------------------------------------------------------------|
E|-------------------------------------------------------------------------|


Chorus

e|-------------------------------------------------------------------------|
B|-------------------------------------------------------------------------|
G|-----------------------------------9999999999999999----------------------|
D|9--99999999999999-7777777777777777-7777777777777777-7777777777777777-----|
A|9--99999999999999-7777777777777777-7777777777777777-7777777777777777-----|
E|7--77777777777777-5555555555555555------------------5555555555555555-----| X2

Then

e|-------------------------------------------------------------------------|
B|-------------------------------------------------------------------------|
G|-------------------------------------------------------------------------|
D|-9999999999912-121212-999999999997-777-----------------------------------|
A|-9999999999912-121212-999999999997-777-----------------------------------|
E|-7777777777710-101010-777777777775-555-----------------------------------|
X2

Verse 3 - No Guitar


Just after "You can't handle the truth"

e|-------------------------------------------------------------------------|
B|-------------------------------------------------------------------------|
G|-------------------------------------------------------------------------|
D|--4-4-2--x4------4-4-0--x4-----4-4-2--x4---------------------------------|
A|-------------------------------------------------------------------------|
E|-------------------------------------------------------------------------|


Chorus

e|-------------------------------------------------------------------------|
B|-------------------------------------------------------------------------|
G|-----------------------------------9999999999999999----------------------|
D|9--99999999999999-7777777777777777-7777777777777777-7777777777777777-----|
A|9--99999999999999-7777777777777777-7777777777777777-7777777777777777-----|
E|7--77777777777777-5555555555555555------------------5555555555555555-----| X4
Tap to rate this tab
 
# A B C D E F G H I J K L M N O P Q R S T U V W X Y Z