Song name
# A B C D E F G H I J K L M N O P Q R S T U V W X Y Z

Stereophonics - Getaway tab

I have found it very difficult to find any tabs for this song, so I've tried to work out 
verse and intro myself-


---5--|-----5---7---5-|-----5---7---5-|-----5---7---5-|-----5---7---5-|--|
------|---8---8-------|---8-----------|---8---8-------|---8-----------|--|
---0--|-----------0---|-------0---0---|-----------0---|-------0---0---|--|
------|---------------|---------------|---------------|---------------|--|
------|---------------|---------------|---------------|---------------|--|
------|---------------|---------------|---------------|-----------X-X-|--|

-------------------|---------------|-------------------|--------------|--|
-------------------|---------------|-------------------|--------------|--|
-------------------|---------------|-------------------|--------------|--|
---2h4-4-4-4p2-2-4-|--5------------|---2h4-4-4-4p2-2-2-|---5-7-5-4-2--|--|
---3---3-3-3-3-3-3-|--3------------|---3---3-3-3-3-3-3-|---3-3-3-3-3--|--|
-------------------|----------X-X--|-------------------|--------------|--|

-----------|-------------|-----------------|---|
-----------|-------------|-----------------|---|
-----------|---0---0---0-|---0-------------|---|
---2/4\2---|---0---0---0-|---0-----4\2-2---|---|
---3/5\3---|-------------|-------2-5\3-3---|---|
---------3-|-----3---3---|-----3---------3-|---|


Thats as far as i managed to get, please comment with any ammendments/additions.
Tap to rate this tab
# A B C D E F G H I J K L M N O P Q R S T U V W X Y Z