Guitaretab - guitar tabs
Song name
# A B C D E F G H I J K L M N O P Q R S T U V W X Y Z

Stereophonics - My Friends tab

My Friends-Stereophonics

Band-Kelly Jones-Singing, Guitars
     Richard Jones-Bass
     Javier Weyler-Drums.

Intro/Verse 1

e--------------------------------------------------------------|
B--------------------------------------------------------------|
G--------------------------------------------------------------|
D-7-7-7-7-7-7-7-5-5-5-5-5-5-4-4-4-4-4-4-4-7-7-7-7-7-7-7-7-7-7--|
A-0-0-0-0-0-0-0-0-0-0-0-0-0-0-0-0-0-0-0-0-0-0-0-0-0-0-0-0-0-0--|
E--------------------------------------------------------------| x6

Guitar 2 enters after x4 and plays above and guitar 3 plays below:

Guitar 3

e-------------------------------------------------------------------|
B-------------------------------------------------------------------|
G-6-6-6-6-6-6-7-7-7-7-7-7-9-9-9-9-9-9-9--6-6-6-6-6-6-6/2-2-2-2-2-2--|
D-------------------------------------------------------------------|
A-------------------------------------------------------------------|
E-------------------------------------------------------------------|

Chorus

Guitar 1

e-x-x-x-x-x-x-x-x--x-x-x-x-x-x-x-x-x---------------------|
B-3-3-3-3-3-3-3-3--1-1-1-1-1-1-1-1-1---------------------|
G-2-2-2-2-2-2-2-2--2-2-2-2-2-2-2-2-2--2-2-2-2-2-2-2-2-2--|
D-0-0-0-0-0-0-0-0--3-3-3-3-3-3-3-3-3--2-2-2-2-2-2-2-2-2--|
A------------------3-3-3-3-3-3-3-3-3--0-0-0-0-0-0-0-0-0--|
E--------------------------------------------------------| x3

Then

e-x-x-x-x-x--x-x-x-x-x-------------3-3-3-3-3--x-x-x-x-x--|
B-3-3-3-3-3--1-1-1-1-1-------------3-3-3-3-3--3-3-3-3-3--|
G-2-2-2-2-2--2-2-2-2-2--2-2-2-2-2--0-0-0-0-0--2-2-2-2-2--|
D-0-0-0-0-0--3-3-3-3-3--2-2-2-2-2--0-0-0-0-0--0-0-0-0-0--|
A------------3-3-3-3-3--0-0-0-0-0--x-x-x-x-x--x-x-x-x-x--|
E----------------------------------3-3-3-3-3--2-2-2-2-2--| x1

Guitar 2
[ Tab from: http://www.guitaretab.com/s/stereophonics/160559.html ]
e-----------------------------------------------------|
B-----------------------------------------------------|
G-7-7-7-7-7-10-10-10-10-10-9-9-9-9-9-9-6-6-6-6-6-6-6--|
D-0-0-0-0-0-0--0--0--0--0--0-0-0-0-0-0-0-0-0-0-0-0-0--|
A-----------------------------------------------------|
E-----------------------------------------------------| x3

e------------------------------------------------------------|
B------------------------------------------------------------|
G-7-7-7-7-10-10-10-10-9-9-9-9-9-6-6-6-6-7-7-7-7-7-4-4-4-4-4--|
D-0-0-0-0-0--0--0--0--0-0-0-0-0-0-0-0-0-0-0-0-0-0-0-0-0-0-0--|
A------------------------------------------------------------|
E------------------------------------------------------------| x1

Solo

(Wah-Wah)

e-------------------------------------|
B-8b~~~~~~-8r-------------------------|
G--------------7v--5-7br--5-7br-5-----|
D----------------------------------7--|
A-------------------------------------| 
E-------------------------------------| x2

e-------------------------------------0---0---0-0-0-0-0-0--|
B-17b-17b-17b-17brbrbrbrbrbr--17b-18b-20b-20b-20b-20b-20b--|
G----------------------------------------------------------|
D----------------------------------------------------------|
A----------------------------------------------------------|
E----------------------------------------------------------| x1

Outro

Guitar 1

e--------------------------------------------------------------|
B--------------------------------------------------------------| As Many
G--------------------------------------------------------------| Times As
D-7-7-7-7-7-7-7-5-5-5-5-5-5-4-4-4-4-4-4-4-7-7-7-7-7-7-7-7-7-7--| Neccesary.
A-0-0-0-0-0-0-0-0-0-0-0-0-0-0-0-0-0-0-0-0-0-0-0-0-0-0-0-0-0-0--|
E--------------------------------------------------------------| 

Guitar 2

e-------17--|
B-17-20-----|
G-----------|
D-----------|
A-----------| Repeat Throughout
E-----------| Intro.

Intro/Verse 1
Chorus
Verse 2
Chorus
Solo
Chorus
Outro
Related for My Friends tab