Guitaretab - guitar tabs
Song name
# A B C D E F G H I J K L M N O P Q R S T U V W X Y Z

Stereophonics - I Wanna Be Your Dog tab

 This is a stunning cover of iggy and the stooges' classic - i wanna be your dog, 
by stereophonics and found on their 2005 single, superman EP

Verse
E|---------------------------------------------------------------------|
B|---------------------------------------------------------------------|
G|---------------------------------------------------------------------|
D|--12-12-12-12-11-11-11-11--9-9-9-9-9-9-9-9---------------------------|
A|--10-10-10-10-9--9--9--9---7-7-7-7-7-7-7-7---------------------------|
E|--10-10-10-10-9-9-9--9---7-7-7-7-7-7-7-7---------------------------|

  Chorus
E|----------------------------------------------------------------------|
B|----------------------------------------------------------------------|
G|----------------------------------------------------------------------|
D|--12-12-12-12-11-11-11-1111-11-11-11-9-9-9-9-------------------------|
A|--10-10-10-10-9--9--9--9--9-9--9--9--7-7-7-7-------------------------|
E|--10-10-10-10-9-9-9--9-9-9-9--9--7-7-7-7-------------------- x 3-|
[ Tab from: http://www.guitaretab.com/s/stereophonics/162398.html ]
E|---------------------------------------------------------------------|
B|---------------------------------------------------------------------|
G|---------------------------------------------------------------------|
D|--12-12-12---9-9-9-9-9-7-7-7-4-4-4-4---------------------------------|
A|--10-10-10---7-7-7-7-7-5-5-5-2-2-2-2---------------------------------|
E|--10-10-10---7-7-7-7-7-5-5-5-2-2-2-2---------------------------------|

E|---------------------------------------------------------------------|
B|---------------------------------------------------------------------|
G|--3---------9--------------------------------------------------------|
D|--3---------9--------------------------------------------------------|
A|--5x16-----7x16----------------------------------------------------|
E|---------------------------------------------------------------------|

  Solo
E|----------------------------------------------------------------|
B|-----------------------------------------------------8b---------|
G|-------7-9-9b10-7---7----------------------------7-9----9-7-9---|
D|-9-7-9------------9--9-7h9p7h9p7h9p7h9p7-7--9-7-9---------------|
A|----------------------------------------------------------------|
E|----------------------------------------------------------------|

E|---------------|
B|---------------|
G|---------------|
D|-9p7h9p7-9-----|
A|-----------9-7-|
E|---------------|

this is my first tab any comments to willz_8@hotmail.co.uk cheers
be lucky ;)
Related for I Wanna Be Your Dog tab