Guitaretab - guitar tabs
Song name
# A B C D E F G H I J K L M N O P Q R S T U V W X Y Z

Stereophonics - I Wouldnt Believe Your Radio tab

----------------------------------------------------------------------------
	     I wouldn't Believe Your Radio - Stereophonics
----------------------------------------------------------------------------

Tabbed by: Guitar4Girl
Email: jazzy_r@hotmail.co.uk

Tuning:Standard

Intro (x2)

    Aadd9                  Cmaj7              G6
e|----0-------0-0-0-|----0------0-0-0-|----0------0-0-0-|----0------0-0-0-|
B|----0-------0-0-0-|----0------0-0-0-|----0------0-0-0-|----0------0-0-0-|
G|----6-------6-6-6-|----6------6-6-6-|----0------0-0-0-|----0------0-0-0-|
D|----7-------------|----7------------|-2--2------------|----0------------|
A|-7--7-------------|-7--7------------|-3--3------------|-2--2------------|
E|-5--5-------------|-5--5------------|-----------------|-3--3------------|

Verse (x2)
    Aadd9               Cmaj7              G6
e|----0-------0-0-0-|----0------0-0-0-|----0------0-0-0-|----0------0-0-0-|
B|----0-------0-0-0-|----0------0-0-0-|----0------0-0-0-|----0------0-0-0-|
G|----6-------6-6-6-|----6------6-6-6-|----0------0-0-0-|----0------0-0-0-|
D|----7-------------|----7------------|-2--2------------|----0------------|
A|-7--7-------------|-7--7------------|-3--3------------|-2--2------------|
E|-5--5-------------|-5--5------------|-----------------|-3--3------------|

Chorus

 D, C, G, G (x2)
[ Tab from: http://www.guitaretab.com/s/stereophonics/18338.html ]
    Aadd9                              Cmaj7      G6   Strum 'till -> (x2)
e|----0-------0-0-0-|----0------------|----0--------0---|-----------------|
B|----0-------0-0-0-|----0------------|----0--------0---|-----------------|
G|----6-------6-6-6-|----6---6-6-6----|----0--------0---|-----------------|
D|----7-------------|----7---7-7-7----|----2--------0---|-----------------|
A|-7--7-------------|-7--7---7-7-7----|----3--------2---|-----------------|
E|-5--5-------------|-5--5---5-5-5----|-------------3---|-----------------|

Verse 2
Chorus

Solo (x2)
        D                 C                  G                G
e|--2---------------|--0--------------|-3----------------|-3---------------|
B|--3---------------|--1--------------|-3----------------|-3---------------|
G|--2---------------|--0--------------|-0----------------|-0---------------|
D|--0---------------|--2--------------|-0----------------|-0---------------|
A|--0---------------|--3--------------|-2----------------|-2---------------|
E|--0---------------|--0--------------|-3----------------|-3---------------|

Middle 8
        Em7               A7sus4             Em7               Asus4
e|--0---------------|--0--------------|--0---------------|--0--------------|
B|--3---------------|--3--------------|--3---------------|--3--------------|
G|--0---------------|--0--------------|--0---------------|--0--------------|
D|--2---------------|--2--------------|--2---------------|--2--------------|
A|--2---------------|--0--------------|--2---------------|--2--------------|
E|--0---------------|-----------------|--0---------------|-----------------|

       Em7                A7sus4             G                   G
e|--0---------------|--0--------------|--3---------------|--3--------------|
B|--3---------------|--3--------------|--0---------------|--0--------------|
G|--0---------------|--0--------------|--0---------------|--0--------------|
D|--2---------------|--2--------------|--0---------------|--0--------------|
A|--2---------------|--0--------------|--2---------------|--2--------------|
E|--0---------------|-----------------|--3---------------|--3--------------|

Chorus (play each line x4)


I listened to the song and i'm pretty sure this is right, but if anyone wants to make 
suggestions then just email me or something.
Enjoy playing! :)
Related for I Wouldnt Believe Your Radio tab