Song name
# A B C D E F G H I J K L M N O P Q R S T U V W X Y Z

Stereophonics - Just Looking tab

Song-Just Looking       Album-Performance & Cocktails
Artist-Stereophonics    Tabbed By-Rich Andrews

Hey. This is a great song and a bit trickey untill you get the hang of it.

Standard tuning - EADGBe
Bend up - ^ (Release - *)
Hameron - h
Pulloff - p
Palmmute- x

I Use a Behringer UM100 for this and where you see a (P) you should step on your 
pedal and step off when you see )p(

Any comments to richandrews.andrews@hotmail.co.uk

INTRO

      G                 G              C                C
--------------------------------------------------------------------------|
---------3-1-0-0---------3-1-0-0---------3-1-0-0-----------3-1-0-0--------|
--2^*------------0h2p0-----------0h2p0-----------0h2p0-------------0h2p0--| X2
--------------------------------------------------------------------------|
----------------------------------------3---------------3-----------------|
------3----------------3--------------------------------------------------|

VERSE 1
      G                 G              C                C
--------------------------------------------------------------------------|
---------3-1-0-0---------3-1-0-0---------3-1-0-0-----------3-1-0-0--------|
--2^*------------0h2p0-----------0h2p0-----------0h2p0-------------0h2p0--| X2
--------------------------------------------------------------------------|
----------------------------------------3---------------3-----------------|
------3----------------3--------------------------------------------------|
 A           A            C          C
-------------------------------------------------------------------------|
---1-0-1-0-1---1-0-1-0-1---1-0-1-0-1---1-0-1-----------------------------|
---------------------------------------------2-0-------------------------| X1
-------------------------------------------------------------------------|
-0-----------0------------3----------3-----------------------------------|
-------------------------------------------------------------------------|
      G                 G              C                C
--------------------------------------------------------------------------|
---------3-1-0-0---------3-1-0-0---------3-1-0-0-----------3-1-0-0--------|
--2^*------------0h2p0-----------0h2p0-----------0h2p0-------------0h2p0--| X2
--------------------------------------------------------------------------|
----------------------------------------3---------------3-----------------|
------3----------------3--------------------------------------------------|
 A          A             C          C
-------------------------------------------------------------------------|
---1-0-1-0-1---1-0-1-0-1---1-0-1-0-1---1-0-1-----------------------------|
---------------------------------------------2-0-------------------------| X1
-------------------------------------------------------------------------|
-0-----------0------------3----------3-----------------------------------|
-------------------------------------------------------------------------|
Chorus 1
      C5 G5 C5
-(P)----------------              -)P(---|
-(P)----------------              -)P(---|
-(P)--5-----5xxxxxx- X4  Then >>> -)P(---|
-(P)--5-5-5-5xxxxxx-              -)P(---|
-(P)--3-5-5-3xxxxxx-              -)P(---|
-(P)----3-3---------              -)P(---|

Verse 2

      G                 G              C                C
--------------------------------------------------------------------------|
---------3-1-0-0---------3-1-0-0---------3-1-0-0-----------3-1-0-0--------|
--2^*------------0h2p0-----------0h2p0-----------0h2p0-------------0h2p0--| X2
--------------------------------------------------------------------------|
----------------------------------------3---------------3-----------------|
------3----------------3--------------------------------------------------|
 A           A            C          C
-------------------------------------------------------------------------|
---1-0-1-0-1---1-0-1-0-1---1-0-1-0-1---1-0-1-----------------------------|
---------------------------------------------2-0-------------------------| X1
-------------------------------------------------------------------------|
-0-----------0------------3----------3-----------------------------------|
-------------------------------------------------------------------------|
Chorus 2
      C5 G5 C5
-(P)----------------|
-(P)--5-----5xxxxxx-|
-(P)--5-5-5-5xxxxxx-| X4  Keep The pedal on for solo and next
-(P)--3-5-5-3xxxxxx-|                     Chorus
-(P)----3-3---------|
-(P)----------------|
SOLO
---------------------|
-0-0-0-0-0-1-0-1-3-1-|
--0-0-0-2------------| X2
---------------------|
---------------------|
---------------------|

Chorus 3
      C5 G5 C5
-----------------              -)P(---|
---5-----5xxxxxx-              -)P(---|
---5-5-5-5xxxxxx- X8  Then >>> -)P(---|
---3-5-5-3xxxxxx-              -)P(---|
-----3-3---------              -)P(---|
-----------------              -)P(---|
Verse 4
Quietly (piano)

      G                 G              C                C
--------------------------------------------------------------------------|
---------3-1-0-0---------3-1-0-0---------3-1-0-0-----------3-1-0-0--------|
--2^*------------0h2p0-----------0h2p0-----------0h2p0-------------0h2p0--| X2
--------------------------------------------------------------------------|
----------------------------------------3---------------3-----------------|
------3----------------3--------------------------------------------------|
 A           A            C          C
-------------------------------------------------------------------------|
---1-0-1-0-1---1-0-1-0-1---1-0-1-0-1---1-0-1-----------------------------|
---------------------------------------------2-0-------------------------| X1
-------------------------------------------------------------------------|
-0-----------0------------3----------3-----------------------------------|
-------------------------------------------------------------------------|

Chorus 4 NO PEDAL
 C G G C
-1-3-3-1xxxxxx-|
-1-0-0-1xxxxxx-|
-0-0-0-0xxxxxx-| x4   Fourth time round get slower towards end
-2-0-0-2xxxxxx-|
-3-2-2-3xxxxxx-|
---3-3---------|

There we go
an awesome song 99.9% accurate hope you liked.
im only 12 so if some parts are a bit wrong please comment.
It would help if your are around grades 4-8 for this tab
Tap to rate this tab
 
# A B C D E F G H I J K L M N O P Q R S T U V W X Y Z