Guitaretab - guitar tabs
Song name
# A B C D E F G H I J K L M N O P Q R S T U V W X Y Z

Stereophonics - More Life Than A Tramps Vest tab

Band: Stereophonics
Song: More Life In A Tramps Vest
Album: Word Gets Around


Intro and verse
|---------------------------------------------------------|
|---------------------------------------------------------|
|----------------------------------------7-7-7-7-7-7-7777-|
|--7-777-777-777777---7-7-7-7-7-7-7777---7-7-7-7-7-7-7777-|
|--7-777-777-777777---7-7-7-7-7-7-7777---5-5-5-5-5-5-5555-|
|--5-555-555-555555---5-5-5-5-5-5-5555--------------------|
 |Don抰 use in verse|
 ________________  	


|----------------------------------------------|
|----------------------------------------------|
|--4𦴘4----7-7-7-7-7777--------------------|
 |--4-4-4-4-----7-7-7-7-7777--------------------|
|--2-2-2-2-----5-5-5-5-5555--------------------|
|----------------------------------------------|

Chorus
[ Tab from: http://www.guitaretab.com/s/stereophonics/18341.html ]
|-------------22222222---------------------|
|--22222222---33333333---------------------|
|--22222222---22222222---------------------|
|--22222222---00000000---22222222----------|
|--00000000--------------22222222----------|
|------------------------00000000----------|

Solo 

|------------------------------------------|
|-10-10------10-10-----10-10----10-10------|
|-------9-9--------9-9------9-9-------9s7--|
|------------------------------------------|
|------------------------------------------|
|------------------------------------------|

Then 

|---------------------------------------------------------------|
|----------------------------------10----10----10----10---------|
|-6h7p6-6-7-6h7p6-6-7--6-7p6---7s9----9-----9-----9------9--9s--|
|---------------------------------------------------------------|
|---------------------------------------------------------------|
|---------------------------------------------------------------|


By: jwdude! 
Related for More Life Than A Tramps Vest tab