Song name
# A B C D E F G H I J K L M N O P Q R S T U V W X Y Z

Stereophonics - Just Looking tab

----------------------------------------------------------------------------
One of the great song by the phonics and its in starndard tuning as well, wich is
good cos to be honest i cant be bothered re-tuning everytime i play this song.
----------------------------------------------------------------------------

                 b = bend
                 p = pull off

   INTRO
e---------|
b-3-------|
g-2b4b2p0-
d---------|
a---------|
e---------|

                                   VERSE
e----------------------------------------------------------------------------|
b--3---1---0----------------3---1---0-----------------3---1---0--------------|
g-------------0-0-0-2-0-0--------------0-0-0-2-0-0---------------0-0-0-2-0-0-|
d-------------0-0-0-0-0-0--------------0-0-0-0-0-0---------------0-0-0-0-0-0-|
a----------------------------------------------------3---3---3---------------|
e-3---3---3----------------3---3---3-----------------------------------------|

e---------------------------------------|
b---3---1---0---------------------------|
g--------------0-0-0-2-0-0--------------|
d--------------0-0-0-0-0-0-        <----|Repeat VERSE
a-3---3---3-----------------------------|
e---------------------------------------|


e------------------------------------------|
b---1---0---1---0---1----1---0---1---0---1-|
g---0---0---0---0---0----0---0---0---0---0-|
d------------------------------------------|
a-0---0---0---0---0----0---0---0---0---0---|
e------------------------------------------|

e------------------------------------------|
b---1---0---1---0---1----1---0---1---0---1-|
g---0---0---0---0---0----0---0---0---0---0-|
d------------------------------------------|
a-3---3---3---3---3----3---3---3---3---3---|
e------------------------------------------|

           CHORUS
e-3-3-3--3-3-3-3-3-3-3-3-3-3-3----------------|
b-3-3-3--3-3-3-3-3-3-3-3-3-3-3----------------|
g-0-0-0--0-0-0-0-0-0-0-0-0-0-0----------------|
d-0-0-2--2-2-2-2-2-2-2-2-2-2-2-         <-----|Repeat three times
a-2-2-3--3-3-3-3-3-3-3-3-3-3-3----------------|
e-3-3-0--0-0-0-0-0-0-0-0-0-0-0----------------|

e-3-3-3--3-3-3-3-3-3-3-3-|
b-3-3-3--3-3-3-3-3-3-3-3-|
g-0-0-0--0-0-0-0-0-0-0-0-|
d-0-0-2--2-2-2-2-0-0-2-2-|   Then go back back to VERSE and play the
a-2-2-3--3-3-3-3-2-2-0-0-|   whole thing through again up to here, then play
e-3-3-0--0-0-0-0-0-0-0-0-|   the middle part.....

           MIDDLE PART

     palm mute the strings while playing
e------------------------------------------------|
b-1---1---1---1---3---3---3---3------------------|
g-0-0-0-0-0-0-0-0-0-0-0-0-0-0-0-0-         <-----|Repeat three times
d---2---2---2---2---4---4---4---4----------------|
a------------------------------------------------|
e------------------------------------------------|

      dont palm mute here
e-0-0-0-0--2-2-2-2--3-3-3-3-3-3-3-3-|
b-0-0-0-0--3-3-3-3--3-3-3-3-3-3-3-3-|
g-0-0-0-0--2-2-2-2--0-0-0-0-0-0-0-0-|       return to the start of VERSE and
d-2-2-2-2--0-0-0-0--0-0-0-0-0-0-0-0-|       play up to the start fo CHORUS
a-2-2-2-2--0-0-0-0--2-2-2-2-2-2-2-2-|       where you end on a G chord
e-0-0-0-0--2-2-2-2--3-3-3-3-3-3-3-3-|

hope u like the song dudes, it gets a lil confusing in some parts, i had the flu when i 
this so if theres any mistakes plz send me them.....
Tap to rate this tab
 
# A B C D E F G H I J K L M N O P Q R S T U V W X Y Z