Song name
# A B C D E F G H I J K L M N O P Q R S T U V W X Y Z

Stereophonics - Trouble tab

                       Stereophonics - Trouble


this is my first tab so dont be too harsh


INTRO x4
e----------------------------------------------|
B----------------------------------------------|
G----------------------------------------------|
D-4-4-4-7-7-9-7-4------------------------------|
A-4-4-4-7-7-9-7-4------------------------------|
E-2-2-2-5-5-7-5-2------------------------------|

oh, can you feel it..

e-----------------------------|
B-----------------------------|
G-----------------------------|
D-9---------------------------| keep strumming that
A-9---------------------------|
E-7---------------------------|

im in trouble...

e------------------------------|
B------------------------------|
G------------------------------|
D-4--7--9----------------------|
A-4--7--9----------------------|
E-2--5--7----------------------|

oh, can you feel it(tempo slows)x4
e-----------------------------|
B-----------------------------|
G-----------------------------|
D-4-4-4-4-7-7-9-9-------------|
A-4-4-4-4-7-7-9-9-------------|
E-2-2-2-2-5-5-7-7-------------|

solo(not right but i gave it a go)
e---------------------|
B--17-----------------| i just keep bending the string and picking it
G---------------------|
D---------------------|
A---------------------|
E---------------------|

thats pretty much it
Tap to rate this tab
 
# A B C D E F G H I J K L M N O P Q R S T U V W X Y Z