Song name
# A B C D E F G H I J K L M N O P Q R S T U V W X Y Z

Stereophonics - Trouble tab

From 'Keep Calm and Carry On' (2009)

Words and Music by Kelly Jones

Kelly Jones - Vocals, Guitar
Richard Jones - Bass
Javier Weyler - Drums
Adam Zindani - Guitar, Vocals

Intro

F#, A, B.

e---------------------|
B---------------------|
G---------------------|
D-4-4--7-7--9-9--7--4-|
A-4-4--7-7--9-9--7--4-|
E-0h2--5-5--7-7--5--2-| x4

Verse

B

e------------------------|
B------------------------|
G------------------------|
D-9-9-9-9-9-9-9-9-9-9-9--|
A-9-9-9-9-9-9-9-9-9-9-9--|
E-7-7-7-7-7-7-7-7-7-7-7--| x1

e---------------------|
B---------------------|
G---------------------|
D-4-4--7-7--9-9--7--4-|
A-4-4--7-7--9-9--7--4-|
E-0h2--5-5--7-7--5--2-| x2

Play this all twice.

Chorus

F# A B

e---------------------------------------------------------------|
B---------------------------------------------------------------|
G---------------------------------------------------------------|
D-4-4-4-4-4-4--7-7-7-7-7-7--9-9-9-9-9---------------------------|
A-4-4-4-4-4-4--7-7-7-7-7-7--9-9-9-9-9---------------------------|
E-2-2-2-2-2-2--5-5-5-5-5-5--7-7-7-7-7--2-2-2-5p2-2-5p2-2-5p2-2--| x2

Verse 2

B

e------------------------|
B------------------------|
G------------------------|
D-9-9-9-9-9-9-9-9-9-9-9--|
A-9-9-9-9-9-9-9-9-9-9-9--|
E-7-7-7-7-7-7-7-7-7-7-7--| x1

F# A B

e---------------------|
B---------------------|
G---------------------|
D-4-4--7-7--9-9--7--4-|
A-4-4--7-7--9-9--7--4-|
E-0h2--5-5--7-7--5--2-| x2

Chorus 2 

Just Bass

g---------------------------------------------------------------|
D---------------------------------------------------------------|
A---------------------------------------------------------------|
E-2-2-2-2-2-2--5-5-5-5-5-5--7-7-7-7-7--2-2-2-5p2-2-5p2-2-5p2-2--| x2

on the second time Adam plays something similar to this:

e---5------------5-5-----------5--|
B-7---7--5-5-5-7-----7-5-5-5-7----|
G---------------------------------|
D---------------------------------|
A---------------------------------|
E---------------------------------|

Verse 3


B

e------------------------|
B------------------------|
G------------------------|
D-9-9-9-9-9-9-9-9-9-9-9--|
A-9-9-9-9-9-9-9-9-9-9-9--|
E-7-7-7-7-7-7-7-7-7-7-7--| x1

F# A B

e---------------------|
B---------------------|
G---------------------|
D-4-4--7-7--9-9--7--4-|
A-4-4--7-7--9-9--7--4-|
E-0h2--5-5--7-7--5--2-| x2

Let the E Ring

e-0--|
B-0--|
G-1--|
D-2--|
A-2--|
E-0--|

Bridge

e------------------|
B------------------|
G------------------|
D------------------|
A------------------|
E-0-0-0-0-0-1-2-2--| x2

Breakdown

e---------------------|
B---------------------|
G---------------------|
D-4-4--7-7--9-9--7--4-|
A-4-4--7-7--9-9--7--4-|
E-0h2--5-5--7-7--5--2-| x4

Chorus

Kelly

e---------------------------------------------------------------|
B---------------------------------------------------------------|
G---------------------------------------------------------------|
D-4-4-4-4-4-4--7-7-7-7-7-7--9-9-9-9-9---------------------------|
A-4-4-4-4-4-4--7-7-7-7-7-7--9-9-9-9-9---------------------------|
E-2-2-2-2-2-2--5-5-5-5-5-5--7-7-7-7-7--2-2-2-5p2-2-5p2-2-5p2-2--| x2

Adam

e---5------------5-5-----------5--|
B-7---7--5-5-5-7-----7-5-5-5-7----|
G---------------------------------|
D---------------------------------|
A---------------------------------|
E---------------------------------|


Outro

e---------------------|
B---------------------|
G---------------------|
D-4-4--7-7--9-9--7--4-|
A-4-4--7-7--9-9--7--4-|
E-0h2--5-5--7-7--5--2-| x2
Tap to rate this tab
# A B C D E F G H I J K L M N O P Q R S T U V W X Y Z