Song name
# A B C D E F G H I J K L M N O P Q R S T U V W X Y Z

Stereophonics - Shes Alright tab

Great song on the new Stereophonics album - Keep Calm and Carry On, should give it all a 
:D
This in my opinion, is the best song on there (y)

Intro (x8):

E-------------------------------------------|
B-------------------------------------------|
G-------------------------------------------|
D-------------------------------------------|
A-------------------------------------------|
E---3--3--3-3-3-//8--8--8-8-8--6--6--6-6-6--|

Verse 1:

E---------------------------|
B---------------------------|
G---5--3~---5--3~---5//12---|
D-------------------5//12---|
A---------------------------|
E---------------------------|

E---3~---------------3---------3~---------------3~-----|
B------------------------------3~----------------------|
G---------5--3-------------------------5--3------------|
D---------------5----------------------------5---------|
A------------------------------------------------------|
E------------------------------------------------------|

Chorus:

E----------15----------15--15--15--15--15--15--15--15--15--15--15--15--15--15--15--15----|
B----------------------------------------------------------------------------------------|
G---5--3---------------------------------------------------------------------------------|
D------------------17--17--17--17--17--17--17--17--17--17--17--17--17--17--17--17--------|
A----------------------------------------------------------------------------------------|
E----------------------------------------------------------------------------------------|

E-------------------------|
B-------------------------|
G---5--3------5--3--------|
D---------5~---------5~---|
A-------------------------|
E-------------------------|

Bridge:

E---1/3-1-------------1/3-1--------------1/3-1-------------------|
B----------------------------------------------------------------|
G-----------5--3--0------------5--3--0------------5--3--0--3/5---|
D----------------------------------------------------------------|
A----------------------------------------------------------------|
E----------------------------------------------------------------|

E---1/3-1-------------1/3-1--------------1/3-1-------------------------|
B----------------------------------------------------------------------|
G-----------5--3--0------------5--3--0------------5--3--0--3/5--3--0---|
D----------------------------------------------------------------------|
A----------------------------------------------------------------------|
E----------------------------------------------------------------------|

Interlude (x12):

E---------------------------------------------------|
B---------------------------------------------------|
G---------------------------------------------------|
D---------------------------------------------------|
A---------------------------------------------------|
E---3-3-3--6p3--3-3-3--6p3--3-3-3--6p3---8^--8^-----|

Chorus:

E----------15----------15--15--15--15--15--15--15--15--15--15--15--15--15--15--15--15----|
B----------------------------------------------------------------------------------------|
G---5--3---------------------------------------------------------------------------------|
D------------------17--17--17--17--17--17--17--17--17--17--17--17--17--17--17--17--------|
A----------------------------------------------------------------------------------------|
E----------------------------------------------------------------------------------------|

If you think anything's wrong then contact me on josh_emb@hotmail.co.uk :)

Cheers, hope this tab helped :D
Tap to rate this tab
 
# A B C D E F G H I J K L M N O P Q R S T U V W X Y Z