Song name
# A B C D E F G H I J K L M N O P Q R S T U V W X Y Z

Stereophonics - Devil tab

-----------------------------------------------------------------------------
			     Stereophonics - Devil
-----------------------------------------------------------------------------
Tabbed by:stratocaster11

This tab is made from other tabs on the internet and bits which I have made. I watched 
live version of the song on youtube (the links below) and saw that Kelly Jones plays the 
part on a guitar with a phaser effect.

http://www.youtube.com/watch?v=MH1zBzkrgtY

Listen to the song for strumming and solo rhythms.
Tuning:eBGDAE

Capo 5th fret (optional)

Verse:
  Esus2  Bm/F*
e|--7-----7--|
B|--7-----7--|
G|--9-----7--|
D|--7-----7--|
A|--9-----9--|
E|--7-----7--|

Chorus:
   Bm  A  Em  A
e|--7--5--12--5--|
B|--7--5--12--5--|
G|--7--6--12--6--|
D|--9--7--14--7--|
A|--9--7--14--7--|
E|--7--5--12--5--|

Solo:
e|--------------7--7--------------7--7--------------7--7--------------7--7--|
B|--7/10--7/10--------7/10--7/10--------7/10--7/10--------7/10--7/10--------|
G|--------------------------------------------------------------------------|
D|--------------------------------------------------------------------------|
A|--------------------------------------------------------------------------|
E|--------------------------------------------------------------------------|

These are the chords that can be played in the background when playing the solo:
   Bm   Dm  Esus2
e|--7---10---7--|
B|--7---10---7--|
G|--7---10---9--|
D|--9---12---7--|
A|--9---12---9--|
E|--7---10---7--|

This bit comes in right at the end:
e|--7b--7b--7b--7b--7b--7b--9b--9b--9b--9b--9b--9b--10b--10b--10b--10b--|
B|----------------------------------------------------------------------|
G|----------------------------------------------------------------------|
D|----------------------------------------------------------------------|
A|----------------------------------------------------------------------|
E|----------------------------------------------------------------------|

e|--10b--10b--12b--12b--12b--12b--12b--12b--|
B|------------------------------------------|
G|------------------------------------------|
D|------------------------------------------|
A|------------------------------------------|
E|------------------------------------------|

End on Bm

************************************

| /   slide up
| \   slide down
| h   hammer-on
| p   pull-off
| ~   vibrato
| +   harmonic
| x   Mute note
| b   Bend
| pb  Pre-bend
| br  Bend release
| pbr Pre-bend release
| brb Bend release bend

************************************
Tap to rate this tab
# A B C D E F G H I J K L M N O P Q R S T U V W X Y Z