Song name
# A B C D E F G H I J K L M N O P Q R S T U V W X Y Z

Stereophonics - Check My Eyelids For Holes tab

Help us improve GuitareTab! Take a short survey!
Check my eyelids for holes-Stereophonics

Music by-Kelly Jones
         Richard Jones
         Stuart Cable

Intro
     A               D/F
e-0-0-0-0-0-0--x--0-0-0-0-0-0--|
B-2-2-2-3-2-2--x--2-2-2-3-2-2--|
G-2-2-2-2-2-2--x--2-2-2-2-2-2--|
D-2-2-2-2-2-2--x--0-0-0-0-0-0--|
A-0-0-0-0-0-0--x--x-x-x-x-x-x--| Do This A Couple Of Times.
E--------------x--2-2-2-2-2-2--|

Verse

 A               D/F
e-0-0-0-0-0-0--x--0-0-0-0-0-0--|
B-2-2-2-3-2-2--x--2-2-2-3-2-2--|
G-2-2-2-2-2-2--x--2-2-2-2-2-2--|
D-2-2-2-2-2-2--x--0-0-0-0-0-0--|
A-0-0-0-0-0-0--x--x-x-x-x-x-x--| x4
E--------------x--2-2-2-2-2-2--|

Pre-Chorus
    Bm        G        D
e-2-2-2-2--3-3-3-3--2-2-2-2--|
B-3-3-3-3--3-3-3-3--3-3-3-3--|
G-4-4-4-4--0-0-0-0--2-2-2-2--|
D-4-4-4-4--0-0-0-0-----------|
A-2-2-2-2--2-2-2-2-----------|
E----------3-3-3-3-----------|

Chorus

e-0-0-0-0-0-0-0--0-0-0-0-0-0--3-3-3-3-3-3-3--0-0-0-0-0-0-0--|
B-2-2-2-2-2-2-2--3-3-3-3-3-3--3-3-3-3-3-3-3--3-3-3-3-3-3-3--|
G-2-2-2-2-2-2-2--2-2-2-2-2-2--0-0-0-0-0-0-0--0-0-0-0-0-0-0--|
D-2-2-2-2-2-2-2--0-0-0-0-0-0--0-0-0-0-0-0-0--0-0-0-0-0-0-0--|
A-0-0-0-0-0-0-0--x-x-x-x-x-x--x-x-x-x-x-x-x--x-x-x-x-x-x-x--|
E----------------2-2-2-2-2-2--3-3-3-3-3-3-3--2-2-2-2-2-2-2--|

Solo

Guitar 1

A       D/F       G        D/F

Guitar 2
(Double Stops) (Wah-Wah)
e--------xx--------xx--------xx----------|
B-5b-----xx-5b-----xx-5b-----xx-5-5-5-5--|
G-5b-----xx-5b-----xx-5b-----xx-5-5-5-5--|
D-----7--xx-----7--xx-----7--xx----------| 
A-----7--xx-----7--xx-----7--xx----------|
E--------xx--------xx--------xx----------| x2

Order

Intro
Verse
Pre-Chorus
Chorus
Verse
Pre-Chorus
Chorus
Solo
Chorus out
Related for Check My Eyelids For Holes tab