Song name
# A B C D E F G H I J K L M N O P Q R S T U V W X Y Z

Stereophonics - More Life In A Tramps Vest chords

Highlighted       Show chord diagrams
-----------------------------------------------------------------------------
			Stereophonics - More Life In A Tramps Vest
-----------------------------------------------------------------------------
Tabbed by: kcirtaps
Email: seankcirtap@msn.com - Feel free to add me to MSN

Tuning: Standard (EADGBe)

Chords used:

A - x022xx
Dsus - xx0320
B - x244xx
D/F# - 2x0230
E - 022100

or (power chord alternative - you won't get the proper D/F# sound though!)

A - 577xxx
Dsus - x5777x
B - 799xxx
D/F# - x577xx
E - x799xx

A                              Dsus
I get camping eyes in the final hour
                             A
last minute shoppers picking cauliflour
                                                   Dsus (no muting here)
The fuss they make, you'd swear they were buying a car.
A                                  Dsus
They always moan, moan it's not so cheap,
                                      A
Cheaper still, cheaper still down the street.
Dsus                             B                  A
Lose my rag, tell them take your bag, and shop down there.
                                           D
Closing down, they're closing down another road,
                          A
one way system steals the show.
Dsus                  B                
Mac the knife swigs a can and sings the day away

       A                   Dsus           Dmaj/F#       E
theres more life more life more life in a tramps vest
theres more life more life more life in a tramps vest

Solo - play chorus underneath

e-------------------------------------------|
B-/10-10------10-10-----10-10----10-10------|
G--------9-9--------9-9------9-9-------9s6--|
D-------------------------------------------|
A-------------------------------------------|
E-------------------------------------------|

Solo (cont.)

e----------------------------------------------------------------|
B----------------------------------10----10----10----10v---------|
G-6h7p6-6-7-6h7p6-6-7--6-7p6---6s9----9-----9-----9------9--9/2--|
D----------------------------------------------------------------|
A----------------------------------------------------------------|
E----------------------------------------------------------------|

Flower man sits down in the street
Surrounded by the stock he brought back last week
Bring back the ladies wearing lipstick on their teeth
Make up, we make up a crappy joke
Sit back, relax and have a smoke
Mac the Knife swigs a can and sings the day away

theres more life more life more life in a tramps vest
theres more life more life more life in a tramps vest

i get camping eyes in the final hour
last minute shoppers picking cauliflour
mac the knife swigs a can and sings the day away
theres more life more life more life in a tramps vest
theres more life more life more life in a tramps vest 
Tap to rate this tab
 
# A B C D E F G H I J K L M N O P Q R S T U V W X Y Z